Song name
# A B C D E F G H I J K L M N O P Q R S T U V W X Y Z

Sum 41 - Best Of Me tab

Best Of Me

since it's almost an acoustic song i'll put the chords over the tab so.. enjoy !

INTRO [clean]

   G               D             Em        D       C       D
e|------------------------------------------------------------------||
B|------------------------------------------------------------------||
G|-7-7-7-7-7-7-7-7-7-7-7-7-7-7-7-7-7-7-7-7-7-7-7-7-5-5-5-5-7-7-7-7--||
D|-5-5-4-5-5-5-4-5-5-5-4-5-5-5-4-5-5-5-4-5-5-5-4-5-5-5-5-5-7-7-7-7--||
A|------------------------------------------------------------------|| once
E|------------------------------------------------------------------||

VERSE 1 [clean]

   G               D               Em      D       C       D
e|------------------------------------------------------------------||
B|------------------------------------------------------------------||
G|-7-7-7-7-7-7-7-7-7-7-7-7-7-7-7-7-7-7-7-7-7-7-7-7-5-5-5-5-7-7-7-7--||
D|-5-5-4-5-5-5-4-5-5-5-4-5-5-5-4-5-5-5-4-5-5-5-4-5-5-5-5-5-7-7-7-7--||
A|------------------------------------------------------------------|| twice
E|------------------------------------------------------------------||

   G               D               Em              C       D
e|------------------------------------------------------------------||
B|------------------------------------------------------------------||
G|-7-7-7-7-7-7-7-7-7-7-7-7-7-7-7-7-9-9-9-9-9-9-9-9-5-5-5-5-7-7-7-7--||
D|-5-5-5-5-5-5-5-5-4-4-4-4-4-4-4-4-9-9-9-9-9-9-9-9-5-5-5-5-7-7-7-7--||
A|------------------------------------------------------------------|| twice
E|------------------------------------------------------------------||

CHORUS 1 [chorded]

   G        Em        C    D
e|-3--------0---------0----2--||
B|-3--------0---------1----3--||
G|-0--------0---------0----2--||
D|-0--------2---------2----0--||
A|-2--------2---------3-------||
E|-3--------0-----------------||

RIFF TO VERSE 2 [light distorted]

   G
e|-3---3---3---3---3---3---3---3----||
B|---3---3---3---3---3---3---3---3--||
G|----------------------------------||
D|----------------------------------||
A|----------------------------------||
E|----------------------------------||

   G               D               Em      D       C       D
e|------------------------------------------------------------------||
B|------------------------------------------------------------------||
G|-7-7-7-7-7-7-7-7-7-7-7-7-7-7-7-7-9-9-9-9-7-7-7-7-5-5-5-5-7-7-7-7--||
D|-5-5-5-5-5-5-5-5-4-4-4-4-4-4-4-4-9-9-9-9-7-7-7-7-5-5-5-5-7-7-7-7--||
A|------------------------------------------------------------------|| once
E|------------------------------------------------------------------||

VERSE 2 [is the same as VERSE 1 only light distorted]

CHORUS 2 [power-chorded, distorted]

e|------------------------------------------------------------------||
B|------------------------------------------------------------------||
G|------------------------------------------------------------------||
D|------------------------------------------------------------------||
A|-5-5-5-5-5-5-5-5-5-5-5-5-5-5-5-5-2-2-2-2-2-2-2-2-2-2-2-2-2-2-2-2--||
E|-3-3-3-3-3-3-3-3-3-3-3-3-3-3-3-3-0-0-0-0-0-0-0-0-0-0-0-0-0-0-0-0--||

e|----------------------------------||
B|----------------------------------||
G|----------------------------------||
D|-5-5-5-5-5-5-5-5-7-7-7-7-7-7-7-7--|| the whole thing twice
A|-3-3-3-3-3-3-3-3-5-5-5-5-5-5-5-5--||
E|----------------------------------||

SOLO [Rhythm* distorted, Lead light distorted]

   G
e|-3---3---3---3---3---3---3-3-3-3--||
B|---3---3---3---3---3---3---3-3-3--||
G|----------------------------------|| *play rhythm with power chords
D|----------------------------------||
A|----------------------------------||
E|----------------------------------||

   Em               C               G               D
e|--------------------------------------7-------7-------10-----10------||
B|-8-8-7-8--10-10-7-8-8-7-8--10-10----------8-------7-8----7-8----7-8--||
G|-7-7-7-7---7--7---7-7-7-7---7--7-/7-7---7---7---7--------------------||
D|---------------------------------------------------------------------||
A|---------------------------------------------------------------------||
E|---------------------------------------------------------------------||

   Em               C               G       D/F#    Em
e|--------------------------------------7-------7-------7-------7------||
B|-8-8-7-8--10-10-7-8-8-7-8--10-10----------7-------8-8-----8----------||
G|-7-7-7-7---7--7---7-7-7-7---7--7-/7-7---7---7---7-------9---9---9----||
D|---------------------------------------------------------------------||
A|---------------------------------------------------------------------||
E|---------------------------------------------------------------------||

   C                 D                     D~
e|-----10-----10----------10------10---10-10~--||
B|-8-7----7-8----7-8-10-8----10-8----8----10~--||
G|---------------------------------------------||
D|---------------------------------------------||
A|---------------------------------------------||
E|---------------------------------------------||


FINAL CHORUS [this one is originally chorded
              but to make it sound pianoed i like to play it like this]

   G                Em               C        D            G~
e|---------------------------------------------------------3--||
B|---------------------------------------------------------3--||
G|---------------------------------------------------------0--||
D|-0-0-0-0-0-0-0-0--5-5-5-5-5-5-5-5--5-5-5-5--4-4-4-4------0--||
A|-2-2-2-2-2-2-2-2--7-7-7-7-7-7-7-7--7-7-7-7--5-5-5-5-[x2]-2--||
E|-3-3-3-3-3-3-3-3--7-7-7-7-7-7-7-7--8-8-8-8--5-5-5-5------3--||

OUTRO 

e|-10--------||
B|----8-7-8--|| over and over fading out, though
G|-----------|| it sounds more like it light distorted
D|-----------|| and tapped like below
A|-----------||
E|-----------||

e|-10p3p2h3--||
B|-----------||
G|-----------||
D|-----------||
A|-----------||
E|-----------||

thank you !
hate mail to: oskr__mdo14@hotmail.com
Tap to rate this tab
# A B C D E F G H I J K L M N O P Q R S T U V W X Y Z