Song name
# A B C D E F G H I J K L M N O P Q R S T U V W X Y Z

Sum 41 - Look At Me tab

submitted by: paramore_fans@yahoo.com

Key: A

Tuning: Standard EADGBe

This is how Deryck Whibley plays!!!

Intro:

Guitar 1:
         A                A/G#
e|-----------------|-----------------|
B|-----------------|-----------------|
G|----14--------14-|----14--------14-|
D|----14--------14-|----14--------14-|
A|-12-12--12-12-12-|-11-11--11-11-11-|
E|-----------------|-----------------|

        F#m             Bm           A            E
e|----------------|------------|------------|---0------0-|
B|----------------|---3------3-|---2------2-|---0------0-|
G|-----11------11-|---4------4-|---2------2-|---1------1-|
D|-----11------11-|---4------4-|---2------2-|---2------2-|
A|--9---9--9-9--9-|-2-2--2-2-2-|-0-0--0-0-0-|---2------2-|
E|----------------|------------|------------|-0-0--0-0-0-|
        x2             x2


Verses:

Guitar 1:
         A                A/G#
e|-----------------|-----------------|
B|-----------------|-----------------|
G|----14--------14-|----14--------14-|
D|----14--------14-|----14--------14-|
A|-12-12--12-12-12-|-11-11--11-11-11-|
E|-----------------|-----------------|

        F#m             Bm           A            E
e|----------------|------------|------------|---0------0-|
B|----------------|---3------3-|---2------2-|---0------0-|
G|-----11------11-|---4------4-|---2------2-|---1------1-|
D|-----11------11-|---4------4-|---2------2-|---2------2-|
A|--9---9--9-9--9-|-2-2--2-2-2-|-0-0--0-0-0-|---2------2-|
E|----------------|------------|------------|-0-0--0-0-0-|
        x2             x2


Chorus:

Guitar 1:
       Bm           A            E
e|------------|------------|---0------0-|
B|---3------3-|---2------2-|---0------0-|
G|---4------4-|---2------2-|---1------1-|
D|---4------4-|---2------2-|---2------2-|
A|-2-2--2-2-2-|-0-0--0-0-0-|---2------2-|
E|------------|------------|-0-0--0-0-0-|
                                 x2

       Bm           A            E
e|------------|------------|---0------0-|
B|---3------3-|---2------2-|---0------0-|
G|---4------4-|---2------2-|---1------1-|
D|---4------4-|---2------2-|---2------2-|
A|-2-2--2-2-2-|-0-0--0-0-0-|---2------2-|
E|------------|------------|-0-0--0-0-0-|
                                 x2


Guitar 2:
        Bm                A                E
e|----------------|----------------|----------------
B|-3--------3-----|-2--------2-----|-0--------1-----
G|---4--------4---|---2--------2---|---1--------2---
D|-----4--------4-|-----2--------2-|-----2--------2-
A|-------2--------|-------0--------|-------2--------
E|----------------|----------------|----------------
                                           x2

        Bm                A                E
e|----------------|----------------|----------------
B|-3--------3-----|-2--------2-----|-0--------1-----
G|---4--------4---|---2--------2---|---1--------2---
D|-----4--------4-|-----2--------2-|-----2--------2-
A|-------2--------|-------0--------|-------2--------
E|----------------|----------------|----------------
                                           x2


If you want a Drop D tuning for this song, here are the tabs


Intro:

Guitar 1:
         A                A/G#
e|----------------|---------------|
B|---10------10---|---10-------10-|
G|----9-------9---|----9--------9-|
D|-7-----7-7--7---|-7-----7--7--7-|
A|-7-----7-7--7---|-7-----7--7--7-|
D|-7-----7-7--7---|-6-----6--6--6-|

      F#m           Bm            A            E
e|-------------|------------|------------|---0------0-|
B|----7------7-|---3------3-|---2------2-|---0------0-|
G|----6------6-|---4------4-|---2------2-|---1------1-|
D|--4----4-4-4-|---4------4-|---2------2-|---2------2-|
A|--4----4-4-4-|-2-2--2-2-2-|-0-0--0-0-0-|---2------2-|
D|--4----4-4-4-|------------|------------|-2-2--2-2-2-|
      x2             x2


Verses:

Guitar 1:
         A                A/G#
e|----------------|---------------|
B|---10------10---|---10-------10-|
G|----9-------9---|----9--------9-|
D|-7-----7-7--7---|-7-----7--7--7-|
A|-7-----7-7--7---|-7-----7--7--7-|
D|-7-----7-7--7---|-6-----6--6--6-|

      F#m           Bm            A            E
e|-------------|------------|------------|---0------0-|
B|----7------7-|---3------3-|---2------2-|---0------0-|
G|----6------6-|---4------4-|---2------2-|---1------1-|
D|--4----4-4-4-|---4------4-|---2------2-|---2------2-|
A|--4----4-4-4-|-2-2--2-2-2-|-0-0--0-0-0-|---2------2-|
D|--4----4-4-4-|------------|------------|-2-2--2-2-2-|
      x2             x2


Chorus:

Guitar 1:
       Bm           A            E
e|------------|------------|---0------0-|
B|---3------3-|---2------2-|---0------0-|
G|---4------4-|---2------2-|---1------1-|
D|---4------4-|---2------2-|---2------2-|
A|-2-2--2-2-2-|-0-0--0-0-0-|---2------2-|
D|------------|------------|-2-2--2-2-2-|
                                 x2

       Bm           A            E
e|------------|------------|---0------0-|
B|---3------3-|---2------2-|---0------0-|
G|---4------4-|---2------2-|---1------1-|
D|---4------4-|---2------2-|---2------2-|
A|-2-2--2-2-2-|-0-0--0-0-0-|---2------2-|
D|------------|------------|-2-2--2-2-2-|
                                 x2


Guitar 2:
        Bm                A                E
e|----------------|----------------|----------------
B|-3--------3-----|-2--------2-----|-0--------1-----
G|---4--------4---|---2--------2---|---1--------2---
D|-----4--------4-|-----2--------2-|-----2--------2-
A|-------2--------|-------0--------|-------2--------
E|----------------|----------------|----------------
                                           x2

        Bm                A                E
e|----------------|----------------|----------------
B|-3--------3-----|-2--------2-----|-0--------1-----
G|---4--------4---|---2--------2---|---1--------2---
D|-----4--------4-|-----2--------2-|-----2--------2-
A|-------2--------|-------0--------|-------2--------
E|----------------|----------------|----------------
                                           x2
Tap to rate this tab
# A B C D E F G H I J K L M N O P Q R S T U V W X Y Z