Guitaretab - guitar tabs
Song name
# A B C D E F G H I J K L M N O P Q R S T U V W X Y Z

Sum 41 - Kick Me When Im High tab

  Intro
e|-------------------------------------------------------------------------|
B|-------------------------------------------------------------------------|
G|-5--555555-9-7-5----------5-7-9----------9-7-5-10-9-7-9-7-5--------------|
D|-5--555555-9-7-5-7-777777-5-7-9-5-555555-9-7-5-10-9-7-9-7-5--------------|
A|-3--333333-7-5-3-7-777777-3-5-7-5-555555-7-5-3--8-7-5-7-5-3--------------|
E|-----------------5-555555-------3-333333---------------------x2----------|
[ Tab from: http://www.guitaretab.com/s/sum-41/169604.html ]
  Verse
e|-------------------------------------------------------------------------|
B|-------------------------------------------------------------------------|
G|----------------------3s5------------------------------------------------|
D|-7------5------3------3s5------5s7------3s5------1s3---------------------|
A|-7------5------3------1s3------5s7------3s5------1s3---------------------|
E|-5------3------1---------------3s5------1s3------0s1---------------------|

Related for Kick Me When Im High tab
Advertisement will be closed in 10 seconds