Song name
# A B C D E F G H I J K L M N O P Q R S T U V W X Y Z

Sum 41 - Crazy Amanda Bunkface Live tab

-------------------------------------------------------------------------------
			     SONG NAME - Band Name
-------------------------------------------------------------------------------
Tabbed by: wampenjoe
Email:     wampenjoe@web.de

This is how they play it live at Much. It's not in drop D and it's 2 frets higher than 
original. In my opinion this sounds much better than the original.

http://www.youtube.com/watch?v=HE3uCSoZBKw

Tuning: Standard (EADGBe)
1st Verse
e|---------------------------|
B|---------------------------|
G|--------4~----6~----7~-----| 2x
D|--7~----4~----6~----7~-----|
A|--7~----2~----4~----5~-----|
E|--5~-----------------------|
Don't know what you've really got
it's hard to stay and not pretend
can't make sense in what you thought
seems I can't comprehend

e|------------------------------------------|
B|------------------------------------------|
G|-----------------------------------7----7-|
D|-----7----7----7----7----5----5-77-7-77-7-|
A|--77-7-77-7-77-7-77-7-55-5-55-5-55-5-55-5-|
E|--55-5-55-5-44-4-44-4-33-3-33-3-----------|
pm  ..   ..   ..   ..   ..   ..   ..   ..

I'm happy to be, only all that you see

e|---------------------------------|
B|---------------------------------|
G|---------------------------------|
D|-----7----7----7----7---------5--|
A|--77-7-77-7-77-7-77-7-5555555-5--|
E|--55-5-55-5-44-4-44-4-3333333-3--|
pm  ..   ..   ..   ..   .......

and I'm not one to learn to be the same

Chorus
e|------------------|
B|------------------|
G|-7x----9-999999---|
D|-7x-7--9-999999---| 4x
A|-5x-7--7-777777---|
E|----5-------------|

I don't want to hear you bitch no more
I was better off a year before
no matter how I try I can't ignore
everytime I think my brain gets sore
when I'm with you

post-chorus
e|-----------------------------|
B|-----------------------------|
G|---------------7777777--9999-|
D|-7777-6-7777-6-7777777--9999-| 2x
A|-7777-6-7777-6-5555555--7777-|
E|-5555-4-5555-4---------------|

2nd Verse
guitar 1
e|--------------------------------------------|
B|--------------------------------------------|
G|--------------------------------------------|
D|--------------------------------------------| 2x
A|-------------22222222--44444444--55555555---|
E|--55555555----------------------------------|

guitar 2 comes in second time
e|-------------------------------------------|
B|-------------------------------------------|
G|------------44444444--66666666--77777777---| 1x
D|--77777777--44444444--66666666--77777777---|
A|--77777777--22222222--44444444--55555555---|
E|--55555555---------------------------------|

What's so hard about good-byes
I'm sorry I'm just not as keen
on planning out our perfect lives
when I'm only 19

e|--------------------------------|
B|--------------------------------|
G|------------------------777777--|
D|--777777-777777-555555--777777--|
A|--777777-777777-555555--555555--|
E|--555555-444444-333333----------|
im happy to be only all that you see
e|-------------------------|
B|-------------------------|
G|-------------------------|
D|--777777-777777-5x-5x-5--|
A|--777777-777777-5x-5x-5--|
E|--555555-444444-3x-3x-3--|

and i'm not one to learn to be the same

2nd Chorus
guitar 1:
e|------------------|
B|------------------|
G|-7x----9-999999---|
D|-7x-7--9-999999---| 4x
A|-5x-7--7-777777---|
E|----5-------------|

guitar 2:
e|---------------------|
B|---------------------|
G|-7x----121212121212--|
D|-7x-7---x-x-x-x-x-x--| 4x
A|-5x-7--101010101010--|
E|----5----------------|

I don't want to try and just be friends
nothing's gonna change my mind again
if ever there are thoughts I had they're dead
I can't even think inside my head
when I'm with you

interlude
guitar 1
e|-----------------------------|
B|-----------------------------|
G|-----------------------------|
D|-242-4-242-4-242-4-242--67---| 4x
A|-242-4-242-4-242-4-242--67---|
E|-020-2-020-2-020-2-020--45---|

guitar 2
e|-----------------------------|
B|-----------------------------|
G|-----------------------------|
D|-242-4-242-4-242-4-242--67---|
A|-242-4-242-4-242-4-242--67---|2x
E|-020-2-020-2-020-2-020--45---|

guitar 2
e|--------|
B|--------|
G|----/13-|
D|-22-/x--| 6x
A|-22-/11-|
E|-00-----|

both guitars
e|--------------------------|
B|--------------------------|
G|--------------------------|
D|-22-67-22-67-22-677777777-|
A|-22-67-22-67-22-677777777-|
E|-00-45-00-45-00-455555555-|

bridge
guitar 1
e|-------------------|
B|-------------------|
G|------4----6----4--|
D|-2----4----6----4--| 4x (hit each 8 times)
A|-2----2----4----2--|
E|-0-----------------|

guitar 2                             4x      end on with
e|----------------------------------------|-----------------------------|
B|---8888--9-9-9-9--13131313--1111--9-9---|-11-9--8-11-9--8-11-9--88888-|
G|---8888--10101010-13131313--1212--1010--|-12-10-8-12-10-8-12-10-88888-|
D|----------------------------------------|-----------------------------|
A|----------------------------------------|-----------------------------|
E|----------------------------------------|-----------------------------|

I'm on my way, can't you see that's the truth
so long, can't stay, won't you see that's the truth
I'm on my way, can't you see that's the truth
so long, can't stay, won't you see that's the
see that's the, see that's the...

3rd chorus
guitar 1:
e|------------------|
B|------------------|
G|-----4------------|
D|--2x-4-44444444---| 4x
A|--2x-2-44444444---|
E|--0x---22222222---|

guitar 2
e|----------------------|
B|----------------------|
G|-12x-10-141414141414--|
D|--x--x--x-x-x-x-x-x---| 4x
A|-10x-8--121212121212--|
E|----------------------|


last that I can take
because it's getting really hard to fake
it's not like it's my problem that your late
why can't you just spare the lies I hate
when I'm with you

end on
e|-----|
B|-----|
G|-4---|
D|-4---|
A|-2---|
E|-----|


| /  slide up
| \  slide down
| h  hammer-on
| p  pull-off
| ~  let ring
| .  palm mute
| x  Mute note
===============================================================================
Tap to rate this tab
# A B C D E F G H I J K L M N O P Q R S T U V W X Y Z