Song name
# A B C D E F G H I J K L M N O P Q R S T U V W X Y Z

Sum 41 - Look At Me tab

submitted by GP_HV_16
contact me by email at Lian_the_Swordsman@yahoo.com
or by messaging me or whatever at Myspace.com/delvus laterii

i know this isnt the way you play it, but i like the way it sounds,
and its a lot easier for me to play. the intro may be kinda hard to
understand, but if u screw around with it, u will get the hang of it
after a while. i came up with this way by messing around with someone
elses, so...enjoy

Intro(X2)(Riff A)
|----------------------------------------------------------|
|---10-------10---10-------10------------------------------|
|---9--------9----9--------9----11-------11---9--------9---|
|-7-7--7-7-7-7--6-6--6-6-6-6----11-------11---9--------9---|
|-----------------------------9-9--9-9-9-9--7-7--7-7-7-7---|
|----------------------------------------------------------|

VERSE 1
 A   E  Fm
Look at me
         Bm
who am i supposed to be
      A        E
and what do i believe?
   A   E    Fm
Can you tell me?
            Bm
Since youve made up your mind
       A          E
who knows what you believe

CHORUS 1
     D       A     E
Well I just don't know
     D       A     E
Well I just don't know
 E(let ring)
Who I'm s'posed to be

(Riff A)X1

VERSE 2
 A   E  Fm
Look at me
       Bm               A          E
Am I the image of your hopes and tragedies?
    A    E  Fm
Just look at me
      Bm               A         E
Will I ever be more than just a memory
       D      A      E
'Cus you just don't know
       D      A      E
well you just don't know 

(Riff B)
|--------------------------------------------------|
|--------------------------------------------------|
|-14-14--------14-14--------11-11-------9-9--------|
|-14----14-----14----14-----11----11----9---9------|
|-12-------12--11-------11--9--------9--7-----7----|
|--------------------------------------------------|

  (Riff B)
All I am is me
  (Riff B)
All I am is me
  (pause)
All I am is me

(Riff A)
(play over and over while fading until u 
feel lik its about time to stop)

thats pretty much it, as i said easy, and thanks for spending 
your time reading it. asta la beesta!!








Tap to rate this tab
 
# A B C D E F G H I J K L M N O P Q R S T U V W X Y Z