Song name
# A B C D E F G H I J K L M N O P Q R S T U V W X Y Z

Sum 41 - Pull The Curtain tab

Artist: Sum 41
Song: Pull The Curtain
Album: Underclass Hero
tabbed by: necriononguitar
e-mail (no spam, im serious): tim.rathgen@gmx.de

REAL FANS SUPPORT BANDS BY PURCHASING THEIR CDS!!!


Tuning: Standard

x = mute
. = palm mute
/ = slide up
\ = slide down
h = hammer-on
p = pull-off
b = bend
r = release
~ = hold


::Intro::
Guitar 1
E--------------------------------------------|
B--------------------------------------------|
G--------------------------------------------|
D---6-6--6-6---2-2--2-2---2-2-2--------------|
A---6-6--6-6---2-2--2-2---2-2-2--------------|
E---4-4--4-4---0-0--0-0---0-0-0--------------|

Guitar 2
E----------------------------------------------------------------------|
B----------------------------------------------------------------------|
G---4-4--4-4---4-4--4-4---4-4-4------4-4--4-4---4-4--4-4---4-4-4-------|
D---x-x--x-x---x-x--x-x---x-x-x------x-x--x-x---x-x--x-x---x-x-x-------|
A---2-2--2-2---2-2--2-2---2-2-2------2-2--2-2---2-2--2-2---2-2-2-------|
E----------------------------------------------------------------------|
   [          quite            ]

E---------------------------------------|
B---------------------------------------|
G---4-4--4-4---4-4--4-4---4-4-4---------|
D---x-x--x-x---x-x--x-x---x-x-x---------|          (repeat everything)
A---2-2--2-2---2-2--2-2---2-2-2---------|
E---------------------------------------|

Guitar 1 does a pickslide at the end

::Interlude::  0:12
Guitar 1    (background) u can use a different strumming but this ones fine
I
E----------------------------------------|
B----------------------------------------|
G---4-4--4-4---4-4--4-4---4-4-4----------|
D---4-4--4-4---4-4--4-4---4-4-4----------|
A---2-2--2-2---2-2--2-2---2-2-2----------|
E----------------------------------------|

E-----------------------------------------|
B-----------------------------------------|
G-----------------------------------------|
D---6-6--6-6---2-2--2-2---2-2-2-----------|
A---6-6--6-6---2-2--2-2---2-2-2-----------|
E---4-4--4-4---0-0--0-0---0-0-0-----------|


II
E----------------------------------------|
B----------------------------------------|
G---4-4--4-4---4-4--4-4---4-4-4----------|
D---4-4--4-4---4-4--4-4---4-4-4----------|
A---2-2--2-2---2-2--2-2---2-2-2----------|
E----------------------------------------|

E-----------------------------------------|
B-----------------------------------------|
G-----------------9-9-9-9-9---------------|
D---6-6-6-6-6(/)--9-9-9-9-9---------------|
A---6-6-6-6-6(/)--7-7-7-7-7---------------|
E---4-4-4-4-4(/)--0-0-0-0-0---------------|


III
E----------------------------------------|
B----------------------------------------|
G---4-4--4-4---4-4--4-4---4-4-4----------|
D---4-4--4-4---4-4--4-4---4-4-4----------|
A---2-2--2-2---2-2--2-2---2-2-2----------|
E----------------------------------------|

E-----------------------------------------|
B-----------------------------------------|
G-----------------------------------------|
D---6-6--6-6---2-2--2-2---2-2-2-----------|
A---6-6--6-6---2-2--2-2---2-2-2-----------|
E---4-4--4-4---0-0--0-0---0-0-0-----------|


IV
E----------------------------------------|
B----------------------------------------|
G---4-4--4-4---4-4--4-4---4-4-4----------|
D---4-4--4-4---4-4--4-4---4-4-4----------|
A---2-2--2-2---2-2--2-2---2-2-2----------|
E----------------------------------------|

E----------------------------|
B----------------------------|
G----------------------------|
D---6-6-6-6-6--2~------------|
A---6-6-6-6-6--2~------------|
E---4-4-4-4-4--0~------------|


Guitar 2   (main now)
I
E--------------------------------------------------------|
B--------------------------------------------------------|
G---3--4--6~---4--4\3------------------------------------|
D---x--x--x~---x--x\x-----6-6--6-6---2-2--2-2---2-2-2----|
A---1--2--4~---2--2\1-----6-6--6-6---2-2--2-2---2-2-2----|
E-------------------------4-4--4-4---0-0--0-0---0-0-0----|


II
E---------------------------------------------------------|
B---------------------------------------------------------|
G---3--4---/11---8--6-(\4)------------------9-9-9-9-9-----|
D---x--x---/11---x--x-(\x)---6-6-6-6-6(/)---9-9-9-9-9-----|
A---1--2---/9----6--4-(\2)---6-6-6-6-6(/)---7-7-7-7-7-----|
E----------------------------4-4-4-4-4(/)---0-0-0-0-0-----|


III
E--------------------------------------------------------|
B--------------------------------------------------------|
G---3--4--6~---4--4\3------------------------------------|
D---x--x--x~---x--x\x-----6-6--6-6---2-2--2-2---2-2-2----|
A---1--2--4~---2--2\1-----6-6--6-6---2-2--2-2---2-2-2----|
E-------------------------4-4--4-4---0-0--0-0---0-0-0----|


IV
E--------------------------------------------------------------|
B--------------------------------------------------------------|
G---3/4-4-4-4-4---3/4-4-4-4-4--4-4-4-4---6-6-6-6-6-6-----------|
D---x/x-x-x-x-x---x/x-x-x-x-x--x-x-x-x---x-x-x-x-x-x---2~------|
A---1/2-2-2-2-2---1/2-2-2-2-2--2-2-2-2---4-4-4-4-4-4---2~------|
E------------------------------------------------------0~------|

::Verse::  0:28
Guitar 1
MUTE

Guitar 2    (slightly hearable in the background)
E-----------------------------------------------|
B-----------------------------------------------|
G---4~--4~--4~--4~------------------------------|
D---x~--x~--x~--x~------play it once a chords---|
A---2~--2~--2~--2~------------------------------|
E-----------------------------------------------|

::Pre-Chorus::  0:44    (theres def no guitar playing the high notes!)
Guitar 1
MUTE

Guitar 2
MUTE

::Interlude::  0:53
Guitar 1
Repeat
                     dont call me lazy, it would just suck if i wrote all
Guitar 2             that stuff again... u probably know it anyways...
Repeat

::Verse II::  1:09
Guitar 1
MUTE

Guitar 2
Repeat

::Pre-Chorus::   1:26
Guitar 1
MUTE

Guitar 2
MUTE

::Interlude II::   1:35
Guitar 1+2     (a standard downstrum is appropriate)
E---------------------------------------------------------------------------|
B---------------------------------------------------------------------------|
G---------------------------------------------------------------------------|
D---2-2-2-2-2-2-2-2--4-4-4-4-5-5-5-5--6-6-6-6-6-6-6-6--4-4-4-4-4-4-4-4------|
A---2-2-2-2-2-2-2-2--4-4-4-4-6-6-6-6--6-6-6-6-6-6-6-6--4-4-4-4-4-4-4-4------|
E---0-0-0-0-0-0-0-0--2-2-2-2-3-3-3-3--4-4-4-4-4-4-4-4--2-2-2-2-2-2-2-2------|

E---------------------------------------------------------------------------|
B---------------------------------------------------------------------------|
G---------------------------------------------------------------------------|
D---2-2-2-2-2-2-2-2--4-4-4-4-5-5-5-5--6-6-6-6-6-6-6-6--4-4-4-4-4-4-4-4------|
A---2-2-2-2-2-2-2-2--4-4-4-4-6-6-6-6--6-6-6-6-6-6-6-6--4-4-4-4-4-4-4-4------|
E---0-0-0-0-0-0-0-0--2-2-2-2-3-3-3-3--4-4-4-4-4-4-4-4--2-2-2-2-2-2-2-2------|

E--------------------------------------------|
B---------------------8-8-8-8-8-8-8-8--------|
G---------------------9-9-9-9-9-9-9-9--------|
D---2-2-2-2-2-2-2-2/--9-9-9-9-9-9-9-9--------|
A---2-2-2-2-2-2-2-2/--7-7-7-7-7-7-7-7--------|
E---0-0-0-0-0-0-0-0---0-0-0-0-0-0-0-0--------|

::Break::  1:55
Guitar 1
MUTE

Guitar 2
MUTE

::Guitar-Solo::   2:00
Guitar 1
E---------------------------------------------------------------------------|
B---------------------------------------------------------------------------|
G---4-4-4-4--3-3-3-3--------------------------------------------------------|
D---4-4-4-4--4-4-4-4--6-6-6-6--4-4-4-4--2-2-2-2--2-2-2-2--4-4-4-4--4-4-4-4--|
A---2-2-2-2--1-1-1-1--6-6-6-6--4-4-4-4--2-2-2-2--2-2-2-2--4-4-4-4--4-4-4-4--|
E---------------------4-4-4-4--2-2-2-2--0-0-0-0--0-0-0-0--2-2-2-2--2-2-2-2--|

E---------------------------------------------------------------------------|
B---------------------------------------------------------8-8-8-8--8-8-8-8--|
G---------------------------------------------------------9-9-9-9--9-9-9-9--|
D---6-6-6-6--6-6-6-6--4-4-4-4--4-4-4-4--2-2-2-2--2-2-2-2/-9-9-9-9--9-9-9-9--|
A---6-6-6-6--6-6-6-6--4-4-4-4--4-4-4-4--2-2-2-2--2-2-2-2/-7-7-7-7--7-7-7-7--|
E---4-4-4-4--4-4-4-4--2-2-2-2--2-2-2-2--0-0-0-0--0-0-0-0--0-0-0-0--0-0-0-0--|


Guitar 2
E-------------------------------------14~-------14~------------|
B---12-12-12-12-12-12-12-12-12-----12~-------12~---------------|
G---x--x--x--x--x--x--x--x--x---13~-------13~--------13~-------|
D---x--x--x--x--x--x--x--x--x----------------------------------|
A---14-14-14-14-14-14-14-14-14---------------------------------|
E--------------------------------------------------------------|
   [       9 not 8            ]
                                   *
E---11~-------11~--------11~--------------------14--11~-----|
B------12~-------12~--------12~----11h12p11~----------------|
G---------13~-------13~---------------------13~-------------|
D-----------------------------------------------------------|
A-----------------------------------------------------------|
E-----------------------------------------------------------|

E-----------------------------------------------------------|
B-----------------------------------------------------------|
G---13-13-13-13-13-13-13-13--11-11-11-11-11-11-11-11--------|
D---x--x--x--x--x--x--x--x---x--x--x--x--x--x--x--x---------|
A---11-11-11-11-11-11-11-11--13-13-13-13-13-13-13-13--------|
E-----------------------------------------------------------|

E--------------------------------------14~--------14~-------------|
B-----------------------------------12~--------12~-----14b15r14---|
G---16-16--15-15--16-16--15-15---13~--------13~-------------------|
D---x--x---x--x---x--x---x--x-------------------------------------|
A---14-14--13-13--14-14--13-13------------------------------------|
E-----------------------------------------------------------------|


Guitar 3   starts at the * (2:07)  (background)
E-----------------14--11~-------------------|
B---11h12p11~-------------------------------|
G------------13~----------------------------|
D-------------------------------------------|
A-------------------------------------------|
E-------------------------------------------|

E-----------------------------------------------------------|
B-----------------------------------------------------------|
G---16-16-16-16-16-16-16-16--15-15-15-15-15-15-15-15--------|
D---x--x--x--x--x--x--x--x---x--x--x--x--x--x--x--x---------|
A---14-14-14-14-14-14-14-14--13-13-13-13-13-13-13-13--------|
E-----------------------------------------------------------|

E-------------------------------------------|
B-------------------------------------------|
G---16-16--15-15--16-16--15-15--------------|
D---x--x---x--x---x--x---x--x---------------|
A---14-14--13-13--14-14--13-13--------------|
E-------------------------------------------|

::Break II::  2:16
Guitar 1
E----------------------------------------------------------------------------|
B----------------------------------------------------------------------------|
G----------------------------------------------------------------------------|
D---4-4-4-4--4-4-4-4---------------------------------------------------------|
A---2-2-2-2--1-1-1-1--6-6-6-6--4-4-4-4--2-2-2-2--2-2-2-2--2-2-2-2--2-2-2-2---|
E---------------------4-4-4-4--2-2-2-2--0-0-0-0--0-0-0-0--0-0-0-0--0-0-0-0---|
    . . . .  . . . .  . . . .  . . . .  . . . .  . . . .  . . . .  . . . .

::Interlude III::   2:25
Guitar 1+2
E----------------------------------------------------------------------|
B----------------------------------------------------------------------|
G---4-4--444---333--333------------------------------------------------|
D---4-4--444---444--444---666--666---444--444---222--222--222--222-----|
A---2-2--222---111--111---666--666---444--444---222--222--222--222-----|
E-------------------------444--444---222--222---000--000--000--000-----|

E--------------------------------|
B---888--888--888--888-----------|
G---999--999--999--999-----------|
D---999--999--999--999-----------|
A---777--777--777--777-----------|
E---000--000--000--000-----------|

or use standard downstrumming instead

::Outro::   2:42
Guitar 1+2
E-----------------------------------------|
B-----------------------------------------|
G-----------9-----------------------------|
D---6-------9-x16---9--------4------------|
A---6-x15---7-------9-x16----4-x16--------|
E---4-------0-------7--------2------------|


and thats it!
i hope u enjoyed, please rate and comment!

Cheers...
Tap to rate this tab
# A B C D E F G H I J K L M N O P Q R S T U V W X Y Z