Song name
# A B C D E F G H I J K L M N O P Q R S T U V W X Y Z

Sum 41 - Fat Lip tab

This tab is the most correct you'll find, the song was not written in standard
was not written in Drop D and was not written on the fifth fret of the E string.
This song is based on an open A. Listen to the song and learn the tab at the
same time and you will understand.

I swear on my life this tab is right!

e-mail: rockjunkieinformant@yahoo.com

Tuning: 1/2 Step Down

INTRO
|------------------------------------|
|------------------------------------|
|-------2-------0-------2------------|
|--------------------------------5-3-| 
|-0-1-3---0-1-3---0-1-3---0-1-3------|
|------------------------------------|
  p p p   p p p   p p p   p p p         
 

MAIN RIFF
|------------------------------------|
|------------------------------------|
|-------2-------0-------2------------|
|--------------------------------5-3-|
|-0-1-3---0-1-3---0-1-3---0-1-3------|
|------------------------------------|


VERSE 1

|------------------------------|
|----6p5h6---------6p5h6-------|
|----------5-5-3-3-------------|
|3-3-------5-5-3-3-------------|
|3-3-------3-3-1-1-------1-0---|
|1-1-------------------------3-|

VERSE 2

|---------------------------------------------------------------|
|---------------------------------------------------------------|
|------------------------------------2-------2--------3-------3-|
|-----3-------3-------3-------3--0-0-0-0-0-0-0-0------3-------3-|
|-----3-------3-------3-------3-------------------1-1-1-1-1-1-1-|
|-1-1-1-1-1-1-1-1-1-1-1-1-1-1-1---------------------------------|
  p p   p p p   p p p   p p p    p p   p p p      p p   p p p 


|-------------------------------------------------------------------------|
|-------------------------------------------------------------------------|
|------------------------------------2-------2--------3-3-----3----3--3-3-|
|-----3-------3-------3-------3--0-0-0-0-0-0-0-0------3-3-----3----1--1-1-|
|-----3-------3-------3-------3-------------------1-1-1-1-1-1-1-0--1--1-1-|
|-1-1-1-1-1-1-1-1-1-1-1-1-1-1-1-------------------------------------------|
  p p   p p p   p p p   p p p    p p   p p p      p p   p p p    
  
CHORUS

|------------------||------------------|
|------------------||------------------|
|-5--5-5--7-7--7-7-||-2--3-3--2-2--3-3-|
|-3--5-5--7-7--7-7-||-2--3-3--2-2--3-3-|
|----3-3--5-5--5-5-||-0--1-1--0-0--1-1-|
|------------------||------------------|

BRIDGE               

|-----------------------------------|
|-----------------------------------|
|--------------------------------3--|
|--3-3-X-3-3-X-3-3-X-3-3-X-3-3-X-3--|
|--3-3-X-3-3-X-3-3-X-3-3-X-3-3-X-1--|
|--1-1-X-1-1-X-1-1-X-1-1-X-1-1-X----|

BRIDGE PT. 2

|-------------------------------|
|-------------------------------|
|-------------------------------|
|--3-3-X-3-3-X-3-3-X-3-3-X-3-3--|
|--3-3-X-3-3-X-3-3-X-3-3-X-3-3--|
|--1-1-X-1-1-X-1-1-X-1-1-X-1-1--|



INTERLUDE

|-------------------------------------|
|-------------------------------------|
|------10---------10--------7---------|
|---10----10---10--- 10---7---7-------|
|-8----------7----------5---------8---|
|-------------------------------6---6-|

VERSE 3

|---------------------------|
|---------------------------|
|---------------------------|
|--8/10-10-10--8/10-10-15---|
|--6/8--8--8---6/8--8--13---|
|---------------------------|

OUTRO

|----------|
|----------|
|----------|
|-3-3--3-3-|
|-3-3--3-3-|
|-1-1--1-1-|


INTRO 		x2

MAIN RIFF	x2
 
VERSE 1 	x2
"Stormin through the party..."

VERSE 2		x1
"I know I'm not the one..."

CHORUS 		x2
"I don't wanna waste my time..."

MAIN RIFF	x1

PAUSE

"Be-cause you don't-

VERSE 1		x2
know us at all..."

VERSE 2		x1
"Cause we like having fun..."

CHORUS 		x2
"I don't wanna waste my time"

BRIDGE		x1

BRIDGE PT 2	x1

INTERLUDE 	x4
"Don't count on me..."

VERSE 3		x5
"Well I'm a, no good lower middle..."

CHORUS		x2
"I don't wanna waste my time..."

CHORUS		x2
"Waste my time with them..."

MAIN RIFF       x2		

OUTRO		x1	
Tap to rate this tab
# A B C D E F G H I J K L M N O P Q R S T U V W X Y Z