Song name
# A B C D E F G H I J K L M N O P Q R S T U V W X Y Z

Sum 41 - Pain For Pleasure tab

e|---------------------------------------------------------------------------|
B|---------------------------------------------------------------------------|
G|---9-----------------------------------------------------------------------|
D|---9-----------------------------------------------------------------------|
A|---7-----------------------------------------------------------------------|
E|---------------------------------------------------------------------------|
     

e|---------------------------------------------------------------------------|
B|---------------------------------------------------------------------------|
G|-9----------7---------------------------------9---------7------------------|
D|-9----------7---------10-----------9----------9--9-7-5--7-9-7-5------------|
A|-7--10-9-7--5-10-9-7--10---10-9-7--9-10-9-7---7---------5------------------|
E|-----------------------8-----------7---------------------------------------|

e|-------------------------------6-4----------6-4---------6-4----------------|
B|-----------------------------4-----7-6-4--------7-6-4-------7-6-4----------|
G|-----------------------------------------6------------4-----------7--------|
D|--10--9-7-5-4-10-9-7-5-----------------------------------------------------|
A|--10-----------------------------------------------------------------------|
E|---8-----------------------------------------------------------------------|

e|--6-4----------------------------------------------------------------------|
B|-------7-6-4---------------------------------------------------------------|
G|--------------7-----repeat-riff twice--------------------------------------|
D|---------------------------------------------------------------------------|
A|---------------------------------------------------------------------------|
E|---------------------------------------------------------------------------|

e|---------------------------------------------------------------------------|
B|---------------------------------------------------------------------------|
G|---9xxxxxx----7xxxxxx----5xxxxxx----4xxxxx-4--7--9-------------------------|
D|---9xxxxxx----7xxxxxx----5xxxxxx----4xxxxx-4--7--9 repeat-a----------------|
A|---7xxxxxx----5xxxxxx----3xxxxxx----2xxxxx-2--5--7--bunch-of-times---------|
E|---------------------------------------------------------------------------|
Tap to rate this tab
# A B C D E F G H I J K L M N O P Q R S T U V W X Y Z