Song name
# A B C D E F G H I J K L M N O P Q R S T U V W X Y Z

Sum 41 - Scumfuck tab

Artist: Sum 41
Song: Scumfuck
Album: Screaming Bloody Murder (2010)
tabbed by: necriononguitar
e-mail (NO SPAM!): tim.rathgen@gmx.de

REAL FANS SUPPORT BANDS BY PURCHASING THEIR CD'S!!!


. = Palm-Muted
~ = hold note
^ = vibrate
p = pull off
h = hammer on
/ = slide up
\ = slide down
u = upstroke
d = downstroke


Tuning: Standard

"""Intro"""
    Em         C5         B5         Eb5
E----------0---------------------------------------------|
B----------0---------------------------------------------|
G----------0---5-5-5--5---4-4-4--4/--8-8-8--8------------|
D---2---2--2---5-5-5--5---4-4-4--4/--8-8-8--8------------|
A---2-2-2--2---3-3-3--3---2-2-2--2/--6-6-6--6------------|
E---0-0-0--0---------------------------------------------|
    d u d  d   d u d  d   d u d  d   d u d  d

"""Verse"""    0:18    (just a clearer sound, guitar stays the same)
    Em         C5         B5         Eb5
E----------0---------------------------------------------|
B----------0---------------------------------------------|
G----------0---5-5-5--5---4-4-4--4/--8-8-8--8------------|
D---2---2--2---5-5-5--5---4-4-4--4/--8-8-8--8------------|
A---2-2-2--2---3-3-3--3---2-2-2--2/--6-6-6--6------------|
E---0-0-0--0---------------------------------------------|
    d u d  d   d u d  d   d u d  d   d u d  d

"""Chorus"""    0:35     (i think both ways sound good)
Version 1
    G5                   B5                   E5
E---------------------------------------------------------------------------|
B---------------------------------------------------------------------------|
G------------------------4--4-4--4-4--4-4--4--------------------------------|
D---5--5-5--5-5--5-5--5--4--4-4--4-4--4-4--4--2--2-2--2-2--2-2--2-----------|
A---5--5-5--5-5--5-5--5--2--2-2--2-2--2-2--2--2--2-2--2-2--2-2--2-----------|
E---3--3-3--3-3--3-3--3-----------------------0--0-0--0-0--0-0--0-----------|
    d  u d  u d  u d  u  d  u d  u d  u d  u  d  u d  u d  u d  u

     C5
E----------------------------------|
B----------------------------------|
G----5--5-5--5-5--5-5--5-----------|
D----5--5-5--5-5--5-5--5-----------|
A----3--3-3--3-3--3-3--3-----------|
E----------------------------------|
     d  u d  u d  u d  u


Version 2
     G5       B5        E5      C5
E----------------------------------------------|
B----------------------------------------------|
G-------------4-----------------5--------------|
D----5--------4-x8------2-------5-x8-----------|
A----5-x8-----2---------2-x8----3--------------|
E----3------------------0----------------------|
     d u d u d u d u d u d u d u d u d u   and so on...

"""Post-Chorus"""    0:57
Guitar 1
    E5               B5               C5               G5
E----------------------------------------------------------------------------|
B----------------------------------------------------------------------------|
G---9-9-9-9-9-9-9-9--4-4-4-4-4-4-4-4--5-5-5-5-5-5-5-5------------------------|
D---x-x-x-x-x-x-x-x--x-x-x-x-x-x-x-x--x-x-x-x-x-x-x-x--5-5-5-5-5-5-5-5-------|
A---7-7-7-7-7-7-7-7--2-2-2-2-2-2-2-2--3-3-3-3-3-3-3-3--x-x-x-x-x-x-x-x-------|
E------------------------------------------------------3-3-3-3-3-3-3-3-------|
    d u d u d u d u  d u d u d u d u  d u d u d u d u  d u d u d u d u

or

   E5               B5               C5               G5
E-----------------------------------------------------------------------------|
B-----------------------------------------------------------------------------|
G--9-9-9-9-9-9-9-9--4-4-4-4-4-4-4-4--5-5-5-5-5-5-5-5--12-12-12-12-12-12-12-12-|
D--x-x-x-x-x-x-x-x--x-x-x-x-x-x-x-x--x-x-x-x-x-x-x-x--x--x--x--x--x--x--x--x--|
A--7-7-7-7-7-7-7-7--2-2-2-2-2-2-2-2--3-3-3-3-3-3-3-3--10-10-10-10-10-10-10-10-|
E-----------------------------------------------------------------------------|
   d u d u d u d u  d u d u d u d u  d u d u d u d u  d  u  d  u  d  u  d  u


Guitar 2   at the 2. E5
          E5
E-----------------------------------------|
B-----------------------------------------|
G---x-x-x-9~---(9)\-----------------------|
D---x-x-x-9~---(9)\-----------------------|
A---x-x-x-7~---(7)\-----------------------|
E---x-x-x---------------------------------|
    d u d u

"""Verse 2"""    1:08
    E5          B5          C5                   G5
E-----------------------------------------------------------------------|
B-----------------------------------------------------------------------|
G---9-9-9-9-----4-4-4-4-----5--5-5--5-5--5-5--5-------------------------|
D---9-9-9-9-----4-4-4-4-----5--5-5--5-5--5-5--5--5--5-5--5-5--5-5--5----|
A---7-7-7-7-----2-2-2-2-----3--3-3--3-3--3-3--3--5--5-5--5-5--5-5--5----|
E------------------------------------------------3--3-3--3-3--3-3--3----|
    d u d u     d u d u     d  u d  u d  u d  u  d  u d  u d  u d  u

U can play the C5 and G5 like the 2. version of the chorus too (up-down only)

"""Chorus"""
just repeat it...
oh and u can play a C5 and D5 instead of only the C5 every second time

"""Outro"""    1:43
theres no actual guitar in this part...
but the piano or rather the organ plays   E5 B5 C5 G5   over and over


and that's it! i hope this helped, please rate, comment and correct me!
oh and especially have fun playing this awesome new Sum song.

Cheers...
Tap to rate this tab
 
# A B C D E F G H I J K L M N O P Q R S T U V W X Y Z