Song name
# A B C D E F G H I J K L M N O P Q R S T U V W X Y Z

Sum 41 - Never Wake Up tab

band: Sum 41
song: Never Wake up
album: all killer no filler
done by: ???


u play this realy  fast 220



e-------------------------------------------------------------------------------
b-------------------------------------------------------------------------------
g-------------9--9----9----6--6----6--------------------------------------------
d--6--6---6---9--9----9----6--6----6-----4---4----4---x2------------------------
a--6--6---6---7--7----7----4--4----4-----4---4----4-----------------------------
e--4--4---4---7--7----7------------------2---2----2-----------------------------


rhy.fig 2.
e-------------------------------------------------------------------------------
b-------------------------------------------------------------------------------
g--13--13----13----13----13--------13-----13----13-----13---11---11----11-------
d---x---x-----x-----x-----x---------x------x-----x------x----x----x-----x-------
a--11--11----11----11----11--------11-----11----11-----11----9----9-----9-------
e-------------------------------------------------------------------------------



e-------------------------------------------------------------------------------
b-------------------------------------------------------------------------------
g--4---4---4---4---4---4---4---4----------------------------------------7-------
d--4---4---4---4---4---4---4---4--4---4---4---4---4---4---4---4---2-----7-------
a--2---2---2---2---2---2---2---2--4---4---4---4---4---4---4---4---2-x5--5-------
e---------------------------------2---2---2---2---2---2---2---2---0--------0----
                                                                  """"""""""
                                                                 ^play this x2^
                                                          and that end rhy. 2 
                                                                 

rhy.fig 2.
e-------------------------------------------------------------------------------
b-------------------------------------------------------------------------------
g--13--13----13----13----13--------13-----13----13-----13---11---11----11-------
d---x---x-----x-----x-----x---------x------x-----x------x----x----x-----x-------
a--11--11----11----11----11--------11-----11----11-----11----9----9-----9-------
e-------------------------------------------------------------------------------



e-------------------------------------------------------------------------------
b-------------------------------------------------------------------------------
g--4---4---4---4---4---4---4---4----------------------------------------7-------
d--4---4---4---4---4---4---4---4--4---4---4---4---4---4---4---4---2-----7-------
a--2---2---2---2---2---2---2---2--4---4---4---4---4---4---4---4---2-x5--5-------
e---------------------------------2---2---2---2---2---2---2---2---0--------0----
                                                                  """"""""""
                                                                 ^play this x2^
                                                          and that end rhy. 2 


then...


e-------------------------------------------------------------------------------
b-------------------------------------------------------------------------------
g--8-----6------9------7---x-----9-------7----x----8-----6----------------------
d--x-x8--x--x8--x-x5---5---x-----x-x5----5----x----x-x8--x-x8-------------------
a--6-----4------7------5---x-----7-------5----x----6-----4----------------------
e-------------------------------------------------------------------------------


e-------------------------------------------------------------------------------
b-------------------------------------------------------------------------------
g---9------7------x--------9--------7-----x-------------------------------------
d---x--x5--5------x--------x--x5----5-----x-------------------------------------
a---7------5------x--------7--------5-----x-------------------------------------
e-------------------------------------------------------------------------------

that it hav fun really
Tap to rate this tab
# A B C D E F G H I J K L M N O P Q R S T U V W X Y Z