Song name
# A B C D E F G H I J K L M N O P Q R S T U V W X Y Z

Sum 41 - Thanks For Nothing tab

Tabbed by, Bobby Galli

I've been trying to learn this song since I started playing guitar.  There never were 
any tabs out there that had it exactly right.  I'm not saying this is exactly right.  But 
me it sounds pretty close.  Enjoy everyone.

| /  slide up
| \  slide down
| h  hammer-on
| p  pull-off
| ~  vibrato
| +  harmonic
| x  Mute note
| .  Palm mute


e|-------------------------------------------------------|
B|-------------------------------------------------------|
G|---7-7-xx--1-1-xx----------5-5-xx----------------------|
D|---7-7-xx--1-1-xx--1-1-xx--5-5-xx----------------------|
A|---5-5-xx--3-3-xx--1-1-xx--3-3-xx----------------------|
E|-------------------3-3-xx------------------------------|

e|-------------------------------------------------------| (let the last
B|-------------------------------------------------------|  chord ring)
G|---7-7-xx--1-1-xx----------5---------------------------|
D|---7-7-xx--1-1-xx--1-1-xx--5---------------------------|
A|---5-5-xx--3-3-xx--1-1-xx--3---------------------------|
E|-------------------3-3-xx------------------------------|

Some people say that this is played using chords, I don't think it is.
e|------------------------------------------------------------| x2
B|------------------------------------------------------------|
G|------------------------------------------------------------|
D|---0-2-33------2-33-----2-33-3\5--5/3-2---------------------|
A|-----------11--------------------------3--------------------|
E|---------------------1--------------------------------------|

e|--------------------------------------------------------------| x2
B|--------------------------------------------------------------|
G|---7---3-3-------5--------------------------------------------|
D|---7---3-3---3---5--------------------------------------------|
A|---5---1-1---3---3-333----------------------------------------|
E|-------------1------------------------------------------------|
                     ...
e|----------------------------------------------------| x2 (let all chords
B|----------------------------------------------------|     ring)
G|---7-7-1-1-----5-5----------------------------------|
D|---7-7-1-1-1-1-5-5----------------------------------|
A|---5-5-3-3-1-1-3-3----------------------------------|
E|-----------3-3--------------------------------------|

e|--------------------------------------------------------------| x2
B|--------------------------------------------------------------|
G|---7-7-7-7-3-3-3-3---------5-5-3-5----------------------------|
D|---7-7-7-7-3-3-3-3-3-3-3-3-5-5-3-5----------------------------|
A|---5-5-5-5-1-1-1-1-3-3-3-3-3-3-1-3----------------------------|
E|-------------------1-1-1-1------------------------------------|

e|------------------------------------------------------------| x2 (above)
B|------------------------------------------------------------|
G|------------------------------------------------------------|
D|---0-2-33------2-33----2-33-3\5--5/3-2----------------------|
A|-----------11--------------------------3--------------------|
E|---------------------1--------------------------------------|

e|--------------------------------------------------------------| x2 (above)
B|--------------------------------------------------------------|
G|---7---3-3-------5--------------------------------------------|
D|---7---3-3---3---5--------------------------------------------|
A|---5---1-1---3---3-333----------------------------------------|
E|-------------1------------------------------------------------|
                     ...
e|----------------------------------------------------| x2 (above)
B|----------------------------------------------------|
G|---7-7-1-1-----5-5----------------------------------|
D|---7-7-1-1-1-1-5-5----------------------------------|
A|---5-5-3-3-1-1-3-3----------------------------------|
E|-----------3-3--------------------------------------|

e|--------------------------------------------------------------| x2
B|--------------------------------------------------------------|
G|---7-7-7-7-3-3-3-3---------5-5-3-5----------------------------|
D|---7-7-7-7-3-3-3-3-3-3-3-3-5-5-3-5----------------------------|
A|---5-5-5-5-1-1-1-1-3-3-3-3-3-3-1-3----------------------------|
E|-------------------1-1-1-1------------------------------------|

e|----------------------------------------------------------| x2
B|----------------------------------------------------------|
G|---7--7\10--10/5------------------------------------------|
D|---7--7\10---8/5--5--3------------------------------------|
A|---5--5\8----8/3--5--3------------------------------------|
E|------------------3--1------------------------------------|

Here comes the faster part, it's harder to hear the guitar but basically it repeats in 
background.

e|-----------------------------------------------------------------|
B|-----------------------------------------------------------------|
G|-----------------------------------------------------------------|
D|----------------------------------------------5-----5------------|
A|---0-0-5h7-8p7--0-0-10p8-7h8--0-0-5h7-8p7--5-5---5-5-------------|
E|-----------------------------------------------------------------|
                                             . .   . .
e|-------------------------------------------------------------------|
B|-------------------------------------------------------------------|
G|-------------------------------------------------------------------|
D|--------------------------------------------2-2-2--3-3-3-----------|
A|---0-0-5h7-8p7--0-0-10p8-7h8--0-0-5h7-8p7---2-2-2--3-3-3-----------|
E|------------------------------------------- 0-0-0--1-1-1-----------|
                                              . . .  . . .
e|-----------------------------------------------------------------|
B|-----------------------------------------------------------------|
G|-----------------------------------------------------------------|
D|----------------------------------------------5-----5------------|
A|---0-0-5h7-8p7--0-0-10p8-7h8--0-0-5h7-8p7--5-5---5-5-------------|
E|-----------------------------------------------------------------|
                                             . .   . .
e|---------------------------------------------------------------|
B|---------------------------------------------------------------|
G|-------------------------------------------3-5-----------------|
D|-------------------------------------------3-5-----------------|
A|---0-0-5h7-8p7--0-0-10p8-7h8--0-0-5h7-8p7--1-3-----------------|
E|---------------------------------------------------------------|

e|--------------------------------------------------------------| x2
B|--------------------------------------------------------------|
G|---7-7-7-7-3-3-3-3---------5-5-3-5----------------------------|
D|---7-7-7-7-3-3-3-3-3-3-3-3-5-5-3-5----------------------------|
A|---5-5-5-5-1-1-1-1-3-3-3-3-3-3-1-3----------------------------|
E|-------------------1-1-1-1------------------------------------|

e|-------------------------------------------------------------| x4
B|-------------------------------------------------------------|
G|-------------------------------------------------------------|
D|---0-2-33------2-33-----2-33-3\5--5/3-2----------------------|
A|-----------11---------------------------3--------------------|
E|---------------------1---------------------------------------|

e|-----| (end of the song, let this chord ring)
B|-----|
G|-----|
D|--3--|
A|--3--|
E|--1--|
Tap to rate this tab
 
# A B C D E F G H I J K L M N O P Q R S T U V W X Y Z