Song name
# A B C D E F G H I J K L M N O P Q R S T U V W X Y Z

Sum 41 - Still Waiting tab

Help us improve GuitareTab! Take a short survey!
Sum 41
Still Waiting, tabbed from Letterman, 2002

Live they Tune their guitars 1/2 step but on the recording they have it in standard. Not
is lined up correctly.

*Update: August 11, 2008: For the orginial tab, i got the fingering from a live
But for the recorded version, they use different fingering/octives. I've finally changed 
E5
from the liver performance to the recorded version.

*Update: August 16, 2008: I found a track of Still Waiting on Youtube with the vocals 
so I can now hear the guitar part way better. Here is a link: 
OR just type in "Sum 41-still waiting instrumental" I did a lot of octive changes

Guitar 1-Deryck
Guitar 2-Dave
Guitar 3,4,&5-studio overdub

Intro: Guitar 1 only (you can remove the octive of the power chord, your choice)
|----------------------------------------------------------------------|
|----------------------------------------------------------------------|
|-9-9-9-9-9-9-9-9--5-5-5-5-5-5-5-5-------------------4-4-4-4-4-4-4-4---|
|-9-9-9-9-9-9-9-9--5-5-5-5-5-5-5-5--5-5-5-5-5-5-5-5--4-4-4-4-4-4-4-4---|
|-7-7-7-7-7-7-7-7--3-3-3-3-3-3-3-3--5-5-5-5-5-5-5-5--2-2-2-2-2-2-2-2---|
|-----------------------------------3-3-3-3-3-3-3-3--------------------|
PM* * * * * * * *  * * * * * * * *  * * * * * * * *  * * * * * * * *

|--------------------------------------------------------------------|
|--------------------------------------------------------------------|
|-9-9-9-9-9-9-9-9--5-5-5-5-5-5-5-5-------------------7-7-7-7-7-7-7-7~|
|-9-9-9-9-9-9-9-9--5-5-5-5-5-5-5-5--5-5-5-5-5-5-5-5--7-7-7-7-7-7-7-7~|
|-7-7-7-7-7-7-7-7--3-3-3-3-3-3-3-3--5-5-5-5-5-5-5-5--5-5-5-5-5-5-5-5~|
|-----------------------------------3-3-3-3-3-3-3-3------------------|
PM* * * * * * * *  * * * * * * * *  * * * * * * * *  * * * * *

*NOTE: from watching countless videos of Sum41 live, Deryck plays the Em chord many
ways, so its the same chord, just in a different position on the neck:
|--------------------| u get the picture
|--------------------|
|-----------9----4---|
|-2----7----9----2---|
|-2-or-7-or-7-or-0---|
|-0----0----0--------|

Interlude:
Guitar 1:
|---------------------------------------------------|
|---------------------------------------------------|
|--9--9--9--9--5--5--5--5---9--9--9--9--5--5--5--5--|
|--9--9--9--9--5--5--5--5---9--9--9--9--5--5--5--5--|
|--7--7--7--7--3--3--3--3---7--7--7--7--3--3--3--3--|
|--0--0--0--0---------------0--0--0--0--------------|
|Guitar 2
|------------|------------|-------------------------|
|------------|------------|-------------------------|
|--12--11-12-|-12--11--12-|-12--11-12-14--12--11--7-|
|---X--X---X-|--X--X----X-|--X--X---X--X---X--X---X-|
|--10--9--10-|-10---9--10-|-10--9--10-12--10--9---5-|
|------------|------------|-------------------------|

|---------------------------------------------------|
|---------------------------------------------------|
|--9--9--9--9--5--5--5--5---9--9--9--9--5--5--5-5/9-|
|--9--9--9--9--5--5--5--5---9--9--9--9--5--5--5-5/9-|
|--7--7--7--7--3--3--3--3---7--7--7--7--3--3--3-3/7-|
|--0--0--0--0---------------0--0--0--0--------------|
|
|------------|------------|-------------------------|
|------------|------------|-------------------------|
|--12--11-12-|-12--11--12-|-12--11-12-14--12--11-7-9|
|---X--X---X-|--X--X----X-|--X--X---X--X---X--X--X-X|
|--10--9--10-|-10---9--10-|-10--9--10-12--10--9--5-7|
|------------|------------|-------------------------|

Verse: Guitar 2 only
|-------------------------|----------------------------|
|-------------------------|----------------------------|
|-------------------------|----------------------------|
|-2-----------7/8-7/8-5/7-|-2----------h5---h5---h5---2|
|-2222222222--7/8-7/8-5/7-|-2222222222-h5---h5---h5---2|
|-0000000000--5/6-5/6-3/5-|-0000000000-h3-0-h3-0-h3-0-0|
PM *********                 *********    *    *

|-------------------------|-------------------|
|-------------------------|-------------------|
|-------------------------|---------4-4-4-4-4-|
|-------------7/8-7/8-5/7-|-5-5-5-5-4-4-4-4-4-|
|-2222222222--7/8-7/8-5/7-|-5-5-5-5-2-2-2-2-2-|
|-0000000000--5/6-5/6-3/5-|-3-3-3-3-----------| x2
PM**********                * * * *

*Note: playing this over and over gets kinda boring so it really adds a lot if u change
up a bit w. some more notes and harmonics! Dave does it as the band turns more and more metal


Guitar 1:last repeat
|------------------|
|------------------|
|--4-4-4-4---------|
|--4-4-4-4\pick\---|
|--2-2-2-2\slide\--|
|------------------|

Chorus:
Guitars 1
|--------------------------------------|
|--------------------------------------|
|--9-9-9-9--5-5-5-5-----------4-4-4-4--|
|--9-9-9-9--5-5-5-5--5-5-5-5--4-4-4-4--|
|--7-7-7-7--3-3-3-3--5-5-5-5--2-2-2-2--|
|--------------------3-3-3-3-----------|
Guitar 2:
|--------------------------------------|
|--------------------------------------|
|--9-9-9-9--5-5-5-5--12121212-7-7-7-7--|
|--x-x-x-x--x-x-x-x---x-x-x---x-x-x-x--|
|--7-7-7-7--3-3-3-3--10101010-5-5-5-5--|
|--------------------------------------|


Guitars 1
|-------------------------------------------|
|-------------------------------------------|
|--9--9--9--9--5-5-5-5--------------4-4-4-4-|
|--9--9--9--9--5-5-5-5--5--5--5--5--4-4-4-4-|
|--7--7--7--7--3-3-3-3--5--5--5--5--2-2-2-2-|
|-----------------------3--3--3--3----------|
|Guitar 2
|-------------------------------------------|
|-------------------------------------------|
|--12-12-12-12-9-9-9-9--12-12-12-12-11111111|
|---x--x--x--x-x-x-x-x--x---x-x--x--x-x-x-x-|
|--10-10-10-10-7-7-7-7--10-10-10-10-9-9-9-9-|
|-------------------------------------------|

Interlude
|------------------------------------------------------------|
|------------------------------------------------------------|
|----------------5-5-5-----------------5---5---5---5--/--4---|
|--2-2-2---------5-5-5---------2-2-2---5---5---5---5--/--5---|
|--2-2-2---------3-3-3---------2-2-2---3---3---3---3--/--2---|
|--0-0-0-----------------------0-0-0-------------------------|
|
|------------------------------------------------------------|
|------------------------------------------------------------|
|-------12--11-12----12--11--12------12--11-12-14--12--11-7-9|
|--------X--X---X-----X--X----X-------X--X---X--X---X--X--X-X|
|-------10--9--10----10---9--10------10--9--10-12--10--9--5-7|
|------------------------------------------------------------|

Verse: Guitar 2 only
|-------------------------|----------------------------|
|-------------------------|----------------------------|
|-------------------------|----------------------------|
|-2-----------7/8-7/8-5/7-|-2----------h5---h5---h5---2|
|-2222222222--7/8-7/8-5/7-|-2222222222-h5---h5---h5---2|
|-0000000000--5/6-5/6-3/5-|-0000000000-h3-0-h3-0-h3-0-0|
PM *********                 *********    *    *

|-------------------------|-------------------|
|-------------------------|-------------------|
|-------------------------|---------4-4-4-4-4-|
|-------------7/8-7/8-5/7-|-5-5-5-5-4-4-4-4-4-|
|-2222222222--7/8-7/8-5/7-|-5-5-5-5-2-2-2-2-2-|
|-0000000000--5/6-5/6-3/5-|-3-3-3-3-----------| x2
PM**********                * * * *

Guitar 1:last repeat
|------------------|
|------------------|
|--4-4-4-4---------|
|--4-4-4-4\pick\---|
|--2-2-2-2\slide\--|
|------------------|

Chorus:
Guitars 1
|--------------------------------------|
|--------------------------------------|
|--9-9-9-9--5-5-5-5-----------4-4-4-4--|
|--9-9-9-9--5-5-5-5--5-5-5-5--4-4-4-4--|
|--7-7-7-7--3-3-3-3--5-5-5-5--2-2-2-2--|
|--------------------3-3-3-3-----------|
Guitar 2:
|--------------------------------------|
|--------------------------------------|
|--9-9-9-9--5-5-5-5--12121212-7-7-7-7--|
|--x-x-x-x--x-x-x-x---x-x-x---x-x-x-x--|
|--7-7-7-7--3-3-3-3--10101010-5-5-5-5--|
|--------------------------------------|


Guitars 1
|-------------------------------------------|
|-------------------------------------------|
|--9--9--9--9--5-5-5-5--------------4-4-4-4-|
|--9--9--9--9--5-5-5-5--5--5--5--5--4-4-4-4-|
|--7--7--7--7--3-3-3-3--5--5--5--5--2-2-2-2-|
|-----------------------3--3--3--3----------|
|Guitar 2
|-------------------------------------------|
|-------------------------------------------|
|--12-12-12-12-9-9-9-9--12-12-12-12-11111111|
|---x--x--x--x-x-x-x-x--x---x-x--x--x-x-x-x-|
|--10-10-10-10-7-7-7-7--10-10-10-10-9-9-9-9-|
|-------------------------------------------|

Bridge:
Guitars 1
|--------------------------------------------|
|--------------------------------------------|
|-----------5-5-5-5--------------4--4--4--4--|
|--2-2-2-2--5-5-5-5--5--5--5--5--4--4--4--4--|
|--2-2-2-2--3-3-3-3--5--5--5--5--2--2--2--2--|
|--0-0-0-0-----------3--3--3--3--------------|
Guitar 2:            "Last Forever"
|--------------------------------------------|
|--------------------------------------------|
|-----------5-5-5-5--121212-1111-9-9-9-111111|
|--2-2-2-2--x-x-x-x--x-x--x-xxx--x-x-x-x-x-x-|
|--x-x-x-x--3-3-3-3--101010-999--7-7-7-9-9-9-|
|--0-0-0-0-----------------------------------|

Guitar 1
|---------------------------------------------|
|---------------------------------------------|
|--9-9-9-9--5-5-5-5---------------4--4--4--4--|
|--9-9-9-9--5-5-5-5--5--5--5--5---4--4--4--4--|
|--7-7-7-7--3-3-3-3--5--5--5--5---2--2--2--2--|
|--0-0-0-0-----------3--3--3--3---------------|
|Guitar 2            "Make things better"
|---------------------------------------------|
|---------------------------------------------|
|-----------5-5-5-5--12-12-9--9--12-12-14-14--|
|--2-2-2-2--x-x-x-x---X-X--X--X--x--x--x--x---|
|--x-x-x-x--3-3-3-3--10-10-7--7--10-10-12-12--|
|--0-0-0-0------------------------------------|

Guitar 1
|--------------------------|     |--------------------------|
|--------------------------|     |--------------------------|
|--9--9--9--9--5-5---7--7--|     |--9--9--9--9--5-5---7--7--|
|--9--9--9--9--5-5---7--7--|     |--9--9--9--9--5-5---7--7--|
|--7--7--7--7--3-3---5--5--|     |--7--7--7--7--3-3---5--5--|
|--0--0--0--0--------------| x3  |--0--0--0--0--------------|
|Guitar 2
|--------------------------|     |--------------------------|
|--------------------------|     |--------------------------|
|--12-12-12-12--9-9--11-11-|     |--12-12-12-12--9-9--14-14-|
|---x--x--x--x--x-x--x--x--|     |---x--x--x--x--x-x--x--x--|
|--10-10-10-10--7-7--9--9--|     |--10-10-10-10--7-7--12-12-|
|--------------------------| x3  |--------------------------|

Guitar 1
|-----------------------------------------------------------------|
|-----------------------------------------------------------------|
|--9-9-9-9-9-9-9-9-9-9-9-9--12-12-12-12-12-12--11-11-11-11-11-11--|
|--x-x-x-x-x-x-x-x-x-x-x-x---x--x--x--x--x--x--x---x--x--x--x--x--|
|--7-7-7-7-7-7-7-7-7-7-7-7--10-10-10-10-10-10--9---9--9--9--9--9--|
|-----------------------------------------------------------------|
|Guitar 2
|-----------------------------------------------------------------|
|-----------------------------------------------------------------|
|--------------5-5-5----------------------------4---4--4----------|
|--2-2-2-------5-5-5--------5--5--5-------------4---4--4----------|
|--2-2-2-------3-3-3--------5--5--5-------------2---2--2----------|
|--0-0-0--------------------3--3--3-------------------------------|

SOLO:
Guitar 1
|-----------------------------------------------------------------|
|-----------------------------------------------------------------|
|--9-9-9-9-9-9-9-9-9-9-9-9--12-12-12-12-12-12--11-11-11-11-11-11--|
|--x-x-x-x-x-x-x-x-x-x-x-x---x--x--x--x--x--x--x---x--x--x--x--x--|
|--7-7-7-7-7-7-7-7-7-7-7-7--10-10-10-10-10-10--9---9--9--9--9--9--|
|-----------------------------------------------------------------|x2
|Guitar 2
|----------------|---------------|---------------|-------------------|
|----------------|---------------|---------------|-------------------|
|----------------|---------------|---------------|-------------------|
|-----9----------|---9-----------|---9-----------|-------------------|
|--/7--10-9----9-|-7---10-9----9-|-7---10-9----9-|-10-9-9-10-12-10-9-|
|--/--------10---|----------10---|----------10---|-------------------|x2

Guitar 1
|-----------------------------------------------------------------|
|-----------------------------------------------------------------|
|--9-9-9-9-9-9-9-9-9-9-9-9--12-12-12-12-12-12--11-11-11-11-11-11--|
|--x-x-x-x-x-x-x-x-x-x-x-x---x--x--x--x--x--x--x---x--x--x--x--x--|
|--7-7-7-7-7-7-7-7-7-7-7-7--10-10-10-10-10-10--9---9--9--9--9--9--|
|-----------------------------------------------------------------|
|Guitar 2
|----------------|---------------|---------------|--------------------|
|----------------|---------------|---------------|--------------------|
|----------------|---------------|---------------|--------------------|
|-----9----------|---9-----------|---9-----------|--------------------|
|--/7--10-9----9-|-7---10-9----9-|-7---10-9----9-|-10-9-9-10-12--9-10-|
|--/--------10---|----------10---|----------10---|--------------------|

Ending on Solo: "I don't know what to feel"
|-------------------------|
|-------------------------|
|-------------------------|
|-------------------------|
|-10-9-10-12-10-12-14-14v-|
|-------------------------|

Chorus: Ok for the last time, there are a lot of layers of guitar, so choose what you 
to play:

Guitars 1
|---------------------------------------------------|
|---------------------------------------------------|
|--9--9--9--9--5--5--5--5---------------4--4--4--4--|
|--9--9--9--9--5--5--5--5---5--5--5--5--4--4--4--4--|
|--7--7--7--7--3--3--3--3---5--5--5--5--2--2--2--2--|
|---------------------------3--3--3--3--------------|
|Guitar 2
|------------|------------|-------------------------|
|------------|------------|-------------------------|
|--12--11-12-|-12--11--12-|-12--11-12-14--12--11--7-|
|---X--X---X-|--X--X----X-|--X--X---X--X---X--X---X-|
|--10--9--10-|-10---9--10-|-10--9--10-12--10--9---5-|
|------------|------------|-------------------------| x2

For the last time, there are sooo many layers of guitar it kinda sounds like this but my 
cant pick them all up.
Guitars 1
|--------------------------------------|
|--------------------------------------|
|--9-9-9-9--5-5-5-5-----------4-4-4-4--|
|--9-9-9-9--5-5-5-5--5-5-5-5--4-4-4-4--|
|--7-7-7-7--3-3-3-3--5-5-5-5--2-2-2-2--|
|--------------------3-3-3-3-----------| x2
Guitar 2:
|--------------------------------------|
|--------------------------------------|
|--9-9-9-9--5-5-5-5--12121212-7-7-7-7--|
|--x-x-x-x--x-x-x-x---x-x-x---x-x-x-x--|
|--7-7-7-7--3-3-3-3--10101010-5-5-5-5--|
|--------------------------------------|x2
|Guitar 3
|--------------------------------------|
|--------------------------------------|
|--12121212-9-9-9-9--12121212-11111111-|
|---x--x--x-x-x-x-x--x-x-x-x--x-x-x-x--|
|--10101010-7-7-7-7--10101010-9-9-9-9--|
|--------------------------------------|
Guitar 5: plays solo, it looks all bunched up i know.
|--------------------------------------------|
|--------------------------------------------|
|--4----------4----------4----------4--------|
|-2-5-4-0-4--2-5-4-0-4--2-5-4-0-4--2-5-4-0-4-|
|--------------------------------------------|
|--------------------------------------------|
* i changed the fingering, same key, different fingering;an alternative

Build up:
|-----------------------------|
|-----------------------------|
|--4-4-4/9-9-9-9-9/-----------|
|--4-4-4/9-9-9-9-9/-----------|
|--2-2-2/7-7-7-7-7/down neck--|
|-----------------------------| sometimes Dave will improvise with some stick Metal
Just stay in key, make this song your own.
End, enjoy! LEAVE COMMENTs
Related for Still Waiting tab