Song name
# A B C D E F G H I J K L M N O P Q R S T U V W X Y Z

Sum 41 - Scumfuck tab

Song: Scumf*ck
Band: Sum 41
Tuning: Standard
Tabbed by sum41rox

Tuning: Standard

Intro
E--------------------------------------------------------|
B--------------------------------------------------------|
G--------------5-5-5--5---4-4-4--4/--8-8-8--8------------|
D---2-2-2--2---5-5-5--5---4-4-4--4/--8-8-8--8------------|
A---2-2-2--2---3-3-3--3---2-2-2--2/--6-6-6--6------------|
E---0-0-0--0---------------------------------------------|
   

Verse   
E--------------------------------------------------------|
B--------------------------------------------------------|
G--------------5-5-5--5---4-4-4--4---8-8-8--8------------|
D---2-2-2--2---5-5-5--5---4-4-4--4---8-8-8--8------------|
A---2-2-2--2---3-3-3--3---2-2-2--2---6-6-6--6------------|
E---0-0-0--0---------------------------------------------|
    

Chorus 1 
E----------------------------------------------------------------|
B----------------------------------------------------------------|
G------------------------4--4-4--4-4--4-4--4--9--9--9--9-9-------|
D---5--5-5--5-5--5-5--5--4--4-4--4-4--4-4--4--9--9--9--9-9-------|
A---5--5-5--5-5--5-5--5--2--2-2--2-2--2-2--2--7--7--7--7-7-------|
E---3--3-3--3-3--3-3--3------------------------------------------|

  
Chorus-1 Cont  
E----------------------------------|
B----------------------------------|
G----5--5-5--5-5--5-5--5-----------|
D----5--5-5--5-5--5-5--5-----------|
A----3--3-3--3-3--3-3--3-----------|
E----------------------------------|
     


 
Verse 2 Guitar 1
E----------------------------------------------------------------------------|
B----------------------------------------------------------------------------|
G---9-9-9-9-9-9-9-9--4-4-4-4-4-4-4-4--5-5-5-5-5-5-5-5------------------------|
D---x-x-x-x-x-x-x-x--x-x-x-x-x-x-x-x--x-x-x-x-x-x-x-x--5-5-5-5-5-5-5-5-------|
A---7-7-7-7-7-7-7-7--2-2-2-2-2-2-2-2--3-3-3-3-3-3-3-3--x-x-x-x-x-x-x-x-------|
E------------------------------------------------------3-3-3-3-3-3-3-3-------|
 

E-----------------------------------------------------------------------------|
B-----------------------------------------------------------------------------|
G--9-9-9-9-9-9-9-9--4-4-4-4-4-4-4-4--5-5-5-5-5-5-5-5--12-12-12-12-12-12-12-12-|
D--9-9-9-9-x-x-x-x--x-x-x-x-x-x-x-x--x-x-x-x-x-x-x-x--x--x--x--x--x--x--x--x--|
A--7-7-7-7-7-7-7-7--2-2-2-2-2-2-2-2--3-3-3-3-3-3-3-3--10-10-10-10-10-10-10-10-|
E-----------------------------------------------------------------------------|
     

Verse 2 Cont
E-----------------------------------------------------------------------|
B-----------------------------------------------------------------------|
G---9-9-9-9-----4-4-4-4-----5--5-5--5-5--5-5--5-------------------------|
D---9-9-9-9-----4-4-4-4-----5--5-5--5-5--5-5--5--5--5-5--5-5--5-5--5----|
A---7-7-7-72x---2-2-2-2-----3--3-3--3-3--3-3--3--5--5-5--5-5--5-5--5----|
E------------------------------------------------3--3-3--3-3--3-3--3----|


Repeat Chorus 1
then

Outro:
Piano Part on Guitar 1

Outro
E--------------------|
B--------------------|
G------4--5----------|
D--2---4--5-5--------|
A--2---2--3-5--------|
E--0--------3--------|
Tap to rate this tab
 
# A B C D E F G H I J K L M N O P Q R S T U V W X Y Z