Sum 41 - Hell Song tab

Standard tuning.(EADGBe)
Pretty sure it is correct throughout.
By Luke Shaddock


e---------------------------------------------------------------------------|
B--9  9999--9-9999----------------------------------------------------------|
G-11^-----11^------11111111986-8h9p8p6h8p6p4h6p4p3-46898-468----------------|
D---------------------------------------------------------------------------|
A---------------------------------------------------------------------------|
E---------------------------------------------------------------------------|

                     (the 11 are eleven not one)


e---------------------------------------------------------------------------|
B------------------------------------------9--11 11--12 12--14 14-----------|
G-3h4p3(X4)-4h6p3(x4)-6h8p6(x4)-8h9p8(x4)-11^-13^13^-14^14^-16^16^----------|
D---------------------------------------------------------------------------|
A---------------------------------------------------------------------------|
E---------------------------------------------------------------------------|


e----------------------------------------------12--------12-----------------|
B-14^14141214p12--1214-14^14141214p12--1214-14^--1412-14^--1412-------------|
G---------------13-------------------13-------------------------------------|
D---------------------------------------------------------------------------|
A---------------------------------------------------------------------------|
E---------------------------------------------------------------------------|


e-------------------------------------5-------------------------------------|
B-111212------------------------------5-(harmonics to get wierd sound)------|
G-------111311-----------------4------5-------------------------------------|
D-------------111311-9119-6----4-4-6----------------------------------------|
A-------------------------6----2-4-6----------------------------------------|
E-------------------------4------2-4----------------------------------------|
Tap to rate this tab
 
# A B C D E F G H I J K L M N O P Q R S T U V W X Y Z