Song name
# A B C D E F G H I J K L M N O P Q R S T U V W X Y Z

Sum 41 - Still Waiting tab

Took me 4 hours to tab but this is it. Notes from live performance on Mad TV. peace





Intro Guitar (bizzy d) Palm Mute
E-------------------------------------
B-------------------------------------
G-------------------------------------
D-99999999-55555555----------44444444-
A-77777777-33333333-55555555-22222222-
E-------------------33333333----------
  
E-------------------------------------
B-------------------------------------
G-------------------------------------
D-99999999-55555555----------77777777-
A-77777777-33333333-55555555-55555555-
E-------------------33333333----------



Interlude Guitar 1 X2
E--------------------------------------------------
B--------------------------------------------------
G-----12-11-12--12-11-12------12-11-12--14-12-11-7-
D------x--x--x---x--x--x-------x--x--x---x--x--x-x-
A-----10--9-10--10--9-10------10--9-10--12-10--9-5-

Guitar 2 X2
E-----------------------------------------
B-----------------------------------------
G-----------------------------------------
D-----99999999-55555555----------77777777-
A-----77777777-33333333-55555555-55555555-
E-----------------------33333333----------



Vocals -Guitar 1 only
E------------------------------------------------------------
B------------------------------------------------------------
G------------------------------------------------------------
D-2--2--------------------------2--2--------------5----5----5
A-2--2-2-2-----9\7---9\7---5/7--2--2-2-2----2-----5----5----5
E-0--0-0-00-0--6\5---6\5---3/5--0--0-0-0----00-0--3---03---03

E-------------------------------------------------------------------
B-------------------------------------------------------------------
G-------------------------------------------------------------------
D-2--2--------------------------------------------------------------
A-2--2-2-2----------9\7---9\7---5/7--5--5-5-5-5-5-5-9-9-9-9-9-12-12-
E-0--0-0-00-0-00-0--6\5-0-6\5-0-3/5--3--3-3-3-3-3-3-7-7-7-7-7-10-10-

E-----------------------------------------------------------
B-----------------------------------------------------------
G-----------------------------------------------------------
D-2--2--------------------------2--2--------------5---5---5-
A-2--2-2-2-----9\7---9\7---5/7--2--2-2-2----2-----5---5---5-
E-0--0-0-00-0--6\5-0-6\5-0-3/5--0--0-0-00-0-00-0--3-0-3-0-3-

E-----------------------------------------------------------------------------|
B-----------------------------------------------------------------------------|
G-----------------------------------------------------------------------------|
D-2--2----------------------------------------------9-9-9-9-9-9-9-9-9-9-9-9-9-|
A-2--2-2-2----------9\7---9\7---5/7--5--5-5-5-5-5-5-9-9-9-9-9-9-9-9-9-9-9-9-9-|
E-0--0-0-00-0-00-0--6\5-0-6\5-0-3/5--3--3-3-3-3-3-3-7-7-7-7-7-7-7-7-7-7-7-7-7-|
						   Bizzy D does a major pickslide here


Chorus
Guitar 1
E-------------------------------------------------------------------
B-------------------------------------------------------------------
G-12-12-12-12-12-12-12-12--9-9-9-9-9-9-9-9--12-12-12-12-12-12-12-12-
D--x--x--x--x--x--x--x--x--x-x-x-x-x-x-x-x---x--x--x--x--x--x--x--x-
A-10-10-10-10-10-10-10-10--7-7-7-7-7-7-7-7--10-10-10-10-10-10-10-10-
E-------------------------------------------------------------------

E----------------------|
B----------------------|
G-11-11-11-11-11-11----|
D--x--x--x--x--x--x----| 
A--9--9--9--9--9--9/14-| x2
E----------------------|
Guitar 2
E--------------------------------------|
B--------------------------------------|
G--9-9-9-9--5-5-5-5-----------4-4-4-4--|
D--7-7-7-7--5-5-5-5--5-5-5-5--4-4-4-4--|
A--7-7-7-7--3-3-3-3--5-5-5-5--2-2-2-2--| x2
E--------------------3-3-3-3-----------|



Interlude  X2 Guitar 1
E--------------------------------------------------
B--------------------------------------------------
G-----12-11-12--12-11-12------12-11-12--14-12-11-7-
D------x--x--x---x--x--x-------x--x--x---x--x--x-x-
A-----10--9-10--10--9-10------10--9-10--12-10--9-5-
Guitar 2 (Play in same time as above)
E--------------------------------------|
B--------------------------------------|
G--9-9-9----5-5-5-------------4-4-5-5--|
D--7-7-7----5-5-5----5-5-5----4-4-5-5--|
A--7-7-7----3-3-3----5-5-5----2-2-3-3--| 
E--------------------3-3-3-------------|



Vocals- Dave only          						     |1st time| 2nd time
E------------------------------------------------------------|--------|--------
B------------------------------------------------------------|--------|--------
G------------------5-5-5-5-5-5-5-5-------------------5-5-5-5-|-5-5-5-5|4-4-4-4- 
D-2-2-2-2-2-2-2-2--5-5-5-5-5-5-5-5--2-2-2-2-2-2-2-2--5-5-5-5-|-5-5-5-5|4-4-4-4-
A-2-2-2-2-2-2-2-2--3-3-3-3-3-3-3-3--2-2-2-2-2-2-2-2--3-3-3-3-|-3-3-3-3|2-2-2-2-
E-0-0-0-0-0-0-0-0-------------------0-0-0-0-0-0-0-0----------|--------|--------

E------------------------------------------------------------
B------------------------------------------------------------
G------------------------------------------------------------
D-2--2--------------------------2--2--------------5----5----5
A-2--2-2-2-----9\7---9\7---5/7--2--2-2-2----2-----5----5----5
E-0--0-0-00-0--6\5---6\5---3/5--0--0-0-0----00-0--3---03---03

E-------------------------------------------------------------------
B-------------------------------------------------------------------
G-------------------------------------------------------------------
D-2--2--------------------------------------------------------------
A-2--2-2-2----------9\7---9\7---5/7--5--5-5-5-5-5-5-9-9-9-9-9-12-12-
E-0--0-0-00-0-00-0--6\5-0-6\5-0-3/5--3--3-3-3-3-3-3-7-7-7-7-7-10-10-

E-----------------------------------------------------------
B-----------------------------------------------------------
G-----------------------------------------------------------
D-2--2--------------------------2--2--------------5---5---5-
A-2--2-2-2-----9\7---9\7---5/7--2--2-2-2----2-----5---5---5-
E-0--0-0-00-0--6\5-0-6\5-0-3/5--0--0-0-00-0-00-0--3-0-3-0-3-

E-----------------------------------------------------------------------------|
B-----------------------------------------------------------------------------|
G-----------------------------------------------------------------------------|
D-2--2----------------------------------------------9-9-9-9-9-9-9-9-9-9-9-9-9-|
A-2--2-2-2----------9\7---9\7---5/7--5--5-5-5-5-5-5-9-9-9-9-9-9-9-9-9-9-9-9-9-|
E-0--0-0-00-0-00-0--6\5-0-6\5-0-3/5--3--3-3-3-3-3-3-7-7-7-7-7-7-7-7-7-7-7-7-7-|
						   Bizzy D does a major pickslide here


Chorus
Guitar 1
E-------------------------------------------------------------------
B-------------------------------------------------------------------
G-12-12-12-12-12-12-12-12--9-9-9-9-9-9-9-9--12-12-12-12-12-12-12-12-
D--x--x--x--x--x--x--x--x--x-x-x-x-x-x-x-x---x--x--x--x--x--x--x--x-
A-10-10-10-10-10-10-10-10--7-7-7-7-7-7-7-7--10-10-10-10-10-10-10-10-
E-------------------------------------------------------------------

E----------------------|
B----------------------|
G-11-11-11-11-11-11----|
D--x--x--x--x--x--x----| 
A--9--9--9--9--9--9/14-| x2
E----------------------|
Guitar 2
E--------------------------------------|
B--------------------------------------|
G--9-9-9-9--5-5-5-5-----------4-4-4-4--|
D--7-7-7-7--5-5-5-5--5-5-5-5--4-4-4-4--|
A--7-7-7-7--3-3-3-3--5-5-5-5--2-2-2-2--| x2
E--------------------3-3-3-3-----------|


Bridge part 1
Guitar 1 only
E----------------------------------------------------------------------------
B----------------------------------------------------------------------------
G------------------5-5-5-5-5-5-5-5--12-12-12-12-11-11-11-11--9-9-9-9-7-7-7-7-
D-2-2-2-2-2-2-2-2--x-x-x-x-x-x-x-x---x--x--x--x--x--x--x--x--x-x-x-x-x-x-x-x-
A-2-2-2-2-2-2-2-2--3-3-3-3-3-3-3-3--10-10-10-10--9--9--9--9--7-7-7-7-5-5-5-5-
E-0-0-0-0-0-0-0-0------------------------------------------------------------

E--------------------------------------------------------------------------------|
B--------------------------------------------------------------------------------|
G-9-9-9-9-9-9-9-9--5-5-5-5-5-5-5-5--12-12-12-12-11-11-11-11--9-9-9-9-11-11-11-11-|
D-x-x-x-x-x-x-x-x--x-x-x-x-x-x-x-x---x--x--x--x--x--x--x--x--x-x-x-x--x--x--x--x-|
A-7-7-7-7-7-7-7-7--3-3-3-3-3-3-3-3--10-10-10-10--9--9--9--9--7-7-7-7--9--9--9--9-|
E--------------------------------------------------------------------------------|



Bridge part 2
Guitar 1
E--------------------------------------------------------------------|
B--------------------------------------------------------------------|
G-9-9-9-9-9-9-9-9--5-5-5-5-7-7-7-7--9-9-9-9-9-9-9-9--5-5-5-5-7-7-7-7-|
D-x-x-x-x-x-x-x-x--x-x-x-x-x-x-x-x--x-x-x-x-x-x-x-x--x-x-x-x-x-x-x-x-|
A-7-7-7-7-7-7-7-7--3-3-3-3-5-5-5-5--7-7-7-7-7-7-7-7--3-3-3-3-5-5-5-5-| x2
E--------------------------------------------------------------------|
Guitar 2
E---------------------------------------------------------------------------------|
B---------------------------------------------------------------------------------|
G-9-9-9-9-9-9-9-9-------------------------9-9-9-9-9-9-9-9-------------------------|
D-9-9-9-9-9-9-9-9-10-10-10-10-12-12-12-12-9-9-9-9-9-9-9-9-10-10-10-10-12-12-12-12-|
A-7-7-7-7-7-7-7-7-10-10-10-10-12-12-12-12-7-7-7-7-7-7-7-7-10-10-10-10-12-12-12-12-|x2
E------------------8--8--8--8-10-10-10-10------------------8--8--8--8-10-10-10-10-|



Bridge part 3 (The pause)
Guitar 1
E-----------------------------------------------------------------|
B-----------------------------------------------------------------|
G-----------------------------------------------------------------|
D-2-2-2-----------2-2-2-----------5-5-5-----------4-4-4-----------|
A-2-2-2-----------2-2-2-----------5-5-5-----------4-4-4-----------|
E-0-0-0-----------0-0-0-----------3-3-3-----------2-4-4-----------|
Guitar 2
E-----------------------------------------------------------------|
B-----------------------------------------------------------------|
G-----------------------------------------------------------------|
D-2-2-2-2-2-2-2-2-2-2-2-2-2-2-2-2-5-5-5-5-5-5-5-5-4-4-4-4-4-4-4-4-|
A-----------------------------------------------------------------|
E-----------------------------------------------------------------|


Dave solo
Guitar 1 
E-----------------------------------------------------------------------|
B-----------------------------------------------------------------------|
G-----------------------------------------------------------------------|
D-----9---------------9------------------9--------------------7---------|
A-7-7----10-9-7-9--7-7---10-9----9-10-10----10-9-7-9-----9-10---10-9----| x4
E-----------------------------10---------------------7-7-------------10-|
Guitar 2
E--------------------------------------------------------------|
B--------------------------------------------------------------|
G--9---9---7---7---9---9---7---7---9---9---7---7-5-5---7--5---7|
D--9---9---7---7---9---9---7---7---9---9---7---7-5-5---7--5---7|
A--7---7---5---5---7---7---5---5---7---7---5---5-3-3---5--5---5|
E--------------------------------------------------------------|


Chorus
Guitar 1
E-------------------------------------------------------------------|
B-------------------------------------------------------------------|
G-12-12-12-12-12-12-12-12--9-9-9-9-9-9-9-9--12-12-12-12-12-12-12-12-|
D--x--x--x--x--x--x--x--x--x-x-x-x-x-x-x-x---x--x--x--x--x--x--x--x-|
A-10-10-10-10-10-10-10-10--7-7-7-7-7-7-7-7--10-10-10-10-10-10-10-10-|
E-------------------------------------------------------------------|

E----------------------|
B----------------------|
G-11-11-11-11-11-11----|
D--x--x--x--x--x--x----| 
A--9--9--9--9--9--9/14-| x4
E----------------------|
Guitar 2
E--------------------------------------|
B--------------------------------------|
G--9-9-9-9--5-5-5-5-----------4-4-7-7--|
D--7-7-7-7--5-5-5-5--5-5-5-5--4-4-7-7--|
A--7-7-7-7--3-3-3-3--5-5-5-5--2-2-5-5--| x2
E--------------------3-3-3-3-----------|



Outro
E-----------|
B-----------|
G-9-9-9-9-9-|
D-x-x-x-x-x-|
A-7-7-7-7-7-|
E-----------|
Tap to rate this tab
# A B C D E F G H I J K L M N O P Q R S T U V W X Y Z