Song name
# A B C D E F G H I J K L M N O P Q R S T U V W X Y Z

Sum 41 - Pain For Pleasure tab

From: "Joe M" 
Subject: s/sum_41/pain_for_pleasure.tab
Date: Tue, 27 Nov 2001 18:47:46 -0400

Song: Pain for Pleasure
Artist: Sum 41
Album: All Killer No Filler
As tabbed by Joe Muggah

Intro A (Guitar 1, palm muted)
e---------------------------------------------------------
B---------------------------------------------------------
G--8--8-8--8--8-8--8--8-8-8-8-8-8-------------------------
D--x--x-x--x--x-x--x--x-x-x-x-x-x-------------------------
A--6--6-6--6--6-6--6--6-6-6-6-6-6-------------------------
E---------------------------------------------------------

Intro B (Guitar 2, same strumming pattern and palm muted)
e---------------------------------------------------------
B---------------------------------------------------------
G--8---10---11---13---------------------------------------
D--x----x----x----x---------------------------------------
A--6----8----9---11---------------------------------------
E---------------------------------------------------------

Riff 1A (Guitar 1)
e---------------------------------------------------------
B---------------------------------------------------------
G---------------------------------------------------------
D--4-4--4^-2-1--3-3--4^-2-1--1-1--4^-2-1--0-0--4^-2-1-----
A--6-6----------4-4----------2-2----------1-1-------------
E---------------------------------------------------------

Riff 1B (Guitar 2)
e---------------------------------------------------------
B---------------------------------------------------------
G-------3^-1---------3^-1---------3^-1--------------------
D--4-4-------4--3-3-------4--1-1-------4------------------
A--6-6----------4-4----------2-2--------------------------
E---------------------------------------------------------

Fill A (Guitar 1)   Fill B (Guitar 2)
e--------------------|------------------------------------
B--------------------|------------------------------------
G--1-----------------|-4---3---1--------------------------
D------4---3---------|------------------------------------
A--------------4---6-|-------------4---6------------------
E--------------------|------------------------------------

Riff 2A (Guitar 1, each hit 10 times and palm muted)
e---------------------------------------------------------
B---------------------------------------------------------
G--8---6---4---3----8---6---4---3-------------------------
D--8---6---4---3----8---6---4---3-------------------------
A--6---4---2---1----6---4---2---1-------------------------
E---------------------------------------------------------

Riff 2B (Guitar 2)
e--6-4-2-4-2-----6-4-2-4-2-----6-4-2-4-2-----6-4-2-4-2----
B-------------2-----------------------------------------4-
G---------------------------4-------------3---------------
D---------------------------------------------------------
A---------------------------------------------------------
E---------------------------------------------------------

(continued)
e--6-4-2-4-2-----6-4-2-4-2-----6-4-2-4-2-----6-4-2-4-2----
B-------------2-----------------------------------------4/
G---------------------------4-------------3---------------
D---------------------------------------------------------
A---------------------------------------------------------
E---------------------------------------------------------

Verse A (Guitar 1, palm muted)
e---------------------------------------------------------
B---------------------------------------------------------
G---------------------------------------------------------
D--4---4-3---3-1---1-0---4---4-3---3-1---1-0--------------
A--6---6-4---4-2---2-1---6---6-4---4-2---2-1--------------
E---------------------------------------------------------
("The seas have parted...")

Verse B (Guitar 2)
e---------------------------------------------------------
B---------------------------------------------------------
G-------------------------8---8-10---10-11---11-15--------
D---------------------------------------------------------
A--6---6-8---8-9---9-13-----------------------------------
E---------------------------------------------------------

Chorus A (Guitar 1)
e---------------------------------------------------------
B---------------------------------------------------------
G--8---11-8---8-----4---6---8---11-8---8-----4---6--------
D--8---11-8---8----4---6----8---11-8---8----4---6---------
A--6----9-6---6---2---4-----6----9-6---6---2---4----------
E---------------------------------------------------------
("Pain for pleasure...")

Chorus B (Guitar 2)
e------6----------------------6---------------------------
B--7---7--7---7---4---6---7---7--7---7---4---6------------
G--8------8---8---4---6---8------8---8---4---6------------
D---------------------------------------------------------
A---------------------------------------------------------
E---------------------------------------------------------

Outro A (Guitar 1)
e---------------------------------------------------------
B---------------------------------------------------------
G----4---6---4---6---4---6--8-----8-6-8-------------------
D---4---6---4---6---4---6---8-----8-6-8-------------------
A--2---4---2---4---2---4----6-----6-4-6-------------------
E---------------------------------------------------------

Outro B (Guitar 2)
e--------------------------11----11-9-11------------------
B--4---6---4---6---4---6---11----11-9-11------------------
G--4---6---4---6---4---6----------------------------------
D---------------------------------------------------------
A---------------------------------------------------------
E---------------------------------------------------------

Intro A
Intro A, B
Riff 1A
Riff 1A, 1B
Fill A, B
Riff 2A, 2B
Riff 2A, Verse A
Riff 2A, Verse A, B
Chorus A, B
Outro A, B

A really cool metal song.
Tap to rate this tab
# A B C D E F G H I J K L M N O P Q R S T U V W X Y Z