Sum 41 - Scumfuck tab

I'm sick and tired of people getting this tab wrong here's a closer version. It's much 
easier than people think.

Tuning:Standard

Lead guitar:
Intro
e|-------------------------------------------|
b|-------------------------------------------|
g|---9-9-xxxx--------------------------------|
d|---9-9-xxxx-10-10-xxxx------------9-9-xxxx-| 4x
a|---7-7-xxxx-7--7--xxxx-10-10-xxxx-6-6-xxxx-|
E|-----------------------7--7--xxxx----------|

Verse 1
e|-------------------------------------------|
b|-------------------------------------------|
g|---9-9-xxxx--------------------------------|
d|---9-9-xxxx-10-10-xxxx------------9-9-xxxx-| 6x
a|---7-7-xxxx-7--7--xxxx-10-10-xxxx-6-6-xxxx-|
E|-----------------------7--7--xxxx----------|

Chorus
Part1
e|---------------------------------------------------|
b|---------------------------------------------------|
g|-------------------------9-9-9-9-9-----------------|
d|---5-5-5-5-5--9-9-9-9-9--9-9-9-9-9--10-10-10-10-10-|
a|---5-5-5-5-5--9-9-9-9-9--7-7-7-7-7--7--7--7--7--7--|
E|---3-3-3-3-3--7-7-7-7-7----------------------------|

Part2
-----------------------------------------------------|
-----------------------------------------------------|
-------------------------9-9-9-9-9--12-12/12-14------|
---5-5-5-5-5--9-9-9-9-9--9-9-9-9-9--x--x-/x--x-------|
---5-5-5-5-5--9-9-9-9-9--7-7-7-7-7--10-10/12-14------|
---3-3-3-3-3--7-7-7-7-7------------------------------|

Part3
-----------------------------------------------------|
-----------------------------------------------------|
-------------------------9-9-9-9-9-------------------|
---5-5-5-5-5--9-9-9-9-9--9-9-9-9-9--10-10-10-10-10---|
---5-5-5-5-5--9-9-9-9-9--7-7-7-7-7--10-10-10-10-10---|
---3-3-3-3-3--7-7-7-7-7-------------8--8--8--8--8----|


Bridge/verse 2: (I can't tell)
e|---------------------------------------------------|
b|---------------------------------------------------|
g|--{9-9-9-9--4-4-4-4}--5-5-5-5-5--------------------|
d|--{9-9-9-9--4-4-4-4}--5-5-5-5-5--5-5-5-5-5---------| 2x
a|--{7-7-7-7--2-2-2-2}--3-3-3-3-3--5-5-5-5-5---------|
E|---------------------------------3-3-3-3-3---------|
        (Play fast)

Play the Part1 of the chorus then the solo right after.

Solo:
e|----------------------------------------------------------------------|
b|----------------------------------------------------------------------|
g|-------------------------9-9-9-9-9--12-12-12/14-14-14/12-12-12-12-12--|
d|---5-5-5-5-5--9-9-9-9-9--9-9-9-9-9--x--x--x-/x--x--x-/x--x--x--x--x---|
a|---5-5-5-5-5--9-9-9-9-9--7-7-7-7-7--10-10-10/12-12-12/10-10-10-10-10--|
E|---3-3-3-3-3--7-7-7-7-7-----------------------------------------------|

------------------------------------------------------------------------|
------------------------------------------------------------------------|
---14-14-14-14-14/16-16-16-16-16/17-17/16/14/16/14-14-14-14-14/12-12-12-|
---x--x--x--x--x-/x--x--x--x--x-/x--x-/x-/x-/x-/x--x--x--x--x-/x--x--x--|
---12-12-12-12-12/14-14-14-14-14/15-15/14/12/14/12-12-12-12-12/10-10-10-|
------------------------------------------------------------------------|

----------------------------------------| You can let this last chord ring
----------------------------------------| or slowly progress to rappid
12-12/11-11-11-11-11-11/12-12/14-14/12~-| stumming then a ringing at the
x--x-/x--x--x--x--x--x-/x--x-/x--x-/x-~-| end.
10-10/9--9--9--9--9--9-/10-10/12-14/10~-|
----------------------------------------|

Thank you for checking out this tab it's my first one and I hope you understand it and 
like it. Keep rocking.
Tap to rate this tab
 
# A B C D E F G H I J K L M N O P Q R S T U V W X Y Z