Sum 41 - Look At Me tab

Sum 41 - Look At Me

Tuning: EADGBe

Put your metronome on 180

yea, it's the "Guitar Pro Tab"
so, http://www.ultimate-guitar.com/tabs/s/sum_41/look_at_me_guitar_pro.htm
credits for the Chords and tab goes to TaL23
i only did the "might help" part.


the chords & names
   A5                    G#/A5                 F#m              F#5
e|---------------------|---------------------|----------------|--------------------|
b|---------------------|---------------------|----------------|--------------------|
g|------14-------------|------14-------------|-----6----------|-----11-------------|
d|------14----14-14-14-|------14----14-14-14-|-----7----7-7-7-|-----11----11-11-11-|
a|-12---12----12-12-12-|-11---11----11-11-11-|-9---9----9-9-9-|-9---9-----9--9--9--|
e|---------------------|---------------------|----------------|--------------------|

   Bm1               Bm2             A                E
e|----------------|-----2----------|----------------|-----0----------|
b|-----3----------|-----3----------|-----2----------|-----0----------|
g|----(4)---------|-----4----------|-----2----------|-----1----------|
d|----(4)---4-4-4-|-----4----4-4-4-|-----2----2-2-2-|-----2----------|
a|-2---2----2-2-2-|-2---2----2-2-2-|-0---0----0-0-0-|-----2----2-2-2-|
e|----------------|----------------|----------------|-0---0----0-0-0-|

Riffs
   Bm2*             A*               E*               E**
e|----------------|----------------|----------------|----------------|
b|-3---------3----|-2---------2----|-0---------0----|-0--------------|
g|-------4--------|-------2--------|-------1--------|----------------|
d|-----4----------|-----2----------|-----2----------|----------------|
a|(2)-------------|(0)-------------|----------------|----------------|
e|----------------|----------------|(0)-------------|(0)-------------|



Chords/Lyrics:


A5  G#/A5 F#m F#5
Bm1 Bm2   A   E


A5   G#/A5 F#m F#5
Look at    me
Bm1      Bm2
  Who am I supposed to be 
A             E
and what do I believe?

A5      G#/A5 F#m F#5
Can you tell  me
Bm1                Bm2
 Since you've made up your mind
A                  E
Who knows what you believe

      Bm2* A*    E*  E**
And I just don't know
     Bm2* A*    E*  
Oh I just don't know 
E**                 A5
Who I'm supposed to be
G#/A5 F#m F#5
Bm1 Bm2   A   E

A5   G#/A5 F#m F#5
Look at    me
  Bm1 Bm2               A              E
Am I  the image of your hopes and tragedies?
     A5   G#/A5 F#m F#5
Just look at    me
Bm1      Bm2     A                E   
  Will I ever be more than just a memory?

           Bm2* A*    E*   E**  
'Cause you just don't know
          Bm2* A*    E*
Well, you just don't know 
E**          Bm2* A* E*
All I am is me
E**          Bm2* A* E*
All I am is me
E**          A5  G#/A5 F#m F#5 Bm1 Bm2   A   E
All I am is me 




ONLY THE CHORDS.

Intro
A5----  G#/A5---- F#m----  F#5----
Bm1---- Bm2----   A----    E----

Verse1
A5----  G#/A5---- F#m----  F#5----
Bm1---- Bm2----   A----    E----
A5----  G#/A5---- F#m----  F#5----
Bm1---- Bm2----   A----    E----

Chorus
Bm2*---- A*----    E*----  E**----
Bm2*---- A*----    E*----  E**----
A5----   G#/A5---- F#m---- F#5----
Bm1----  Bm2----   A----   E----

Verse 2
A5----   G#/A5---- F#m---- F#5----
Bm1----  Bm2----   A----   E----
A5----   G#/A5---- F#m---- F#5----
Bm1----  Bm2----   A----   E----

Chorus2/Outro
Bm2*---- A*----    E*----  E**----
Bm2*---- A*----    E*----  E**----
Bm2*---- A*----    E*----  E**----
Bm2*---- A*----    E*----  E**----
A5----   G#/A5---- F#m---- F#5----
Bm1----  Bm2----   A----   E----

-------------------------------------------------
something that might help


Strumming is like this:
 

   D  D     D U D   D   D    D U D
e|----------------|----------------|
b|----------------|----------------|
g|-----x----------|-----x----------|
d|-----x----x-x-x-|-----x----------|
a|-x---x----x-x-x-|-x---x----x-x-x-|
e|----------------|----------------|
   Q   Q.   E E E   Q   Q.   E E E
   1   3    2 2 2   1   3    2 2 2

E  = Eight Note 
Q  = Quarter Note
Q. = Quarter Dotted Note

1  =  gentle strike
2  =  normal strike
3  =  hard   strike




instead of
   A5                    G#/A5                 F#m              F#5
e|---------------------|---------------------|----------------|--------------------|
b|---------------------|---------------------|----------------|--------------------|
g|------14-------------|------14-------------|-----6----------|-----11-------------|
d|------14----14-14-14-|------14----14-14-14-|-----7----7-7-7-|-----11----11-11-11-|
a|-12---12----12-12-12-|-11---11----11-11-11-|-9---9----9-9-9-|-9---9-----9--9--9--|
e|---------------------|---------------------|----------------|--------------------|

you u can play it like
   A5                    G#/A5                 F#m              F#5
e|---------------------|---------------------|----------------|-----2--------------|
b|------10-------------|------10-------------|-----2----------|-----2-----2--2--2--|
g|------9-----9--9--9--|------9-----9--9--9--|-----2----2-2-2-|--------------------|
d|---------------------|---------------------|-4---4----4-4-4-|-4---4-----4--4--4--|
a|-12---12----12-12-12-|-11---11----11-11-11-|----------------|--------------------|
e|---------------------|---------------------|----------------|--------------------|

or do the A5 & G#/A5 like:
   A5                    G#/A5
e|------5--------------|------5--------------|
b|------5-----5--5--5--|------5-----5--5--5--|
g|-2----2-----2--2--2--|-1----1-----1--1--1--|
d|---------------------|---------------------|
a|---------------------|---------------------|
e|---------------------|---------------------|

i prefer the "normal" way so the gaps between the chords is smaller
so you don't have to jump from 11 to 4. and, i think it's easier to play it the "normal" way.


you can play some chords in another way,,

    A5       G#/a5     F#m       F#5
e|-----5-- ------5-- -------- ------2--|
b|-----2-- ------2-- -----2-- ------2--|
g|-14--2-- --14--2-- --6--2-- --11--2--|
d|-14--2-- --14--2-- --7--4-- --11--4--|
a|-12--0-- --11--X-- --9--4-- --9---4--|
e|-------- ------4-- -----2-- ------2--|



hoped it helped (:
Tap to rate this tab
 
# A B C D E F G H I J K L M N O P Q R S T U V W X Y Z