Song name
# A B C D E F G H I J K L M N O P Q R S T U V W X Y Z

Sum 41 - Screaming Bloody Murder tab

Song: Screaming Bloody Murder
Year: 2011
Artist: Sum 41

My First Tab

The tuning could work either drop d or standard

Enjoy

e|--------------------|------------------------|
B|----8p4-8p4-6p3-6p3-|-8br-7h8-4~~------------|
G|--------------------|------------------------|
D|--------------------|------------------------|
A|--------------------|------------------------|
E|--------------------|------------------------|

e|--------------------|-15b--------------------|
B|--88888888-66666666-|-13--x8-----------------|
G|--------------------|------------------------|
D|--------------------|------------------------|
A|--------------------|------------------------|
E|--------------------|------------------------|

                         Tremelo
e|-11-10-8-6-8--6-------|-11-12-14-15b~~~---|
B|-------------8--4h6-0~|-------------------|
G|----------------------|-------------------|
D|----------------------|-------------------|
A|----------------------|-------------------|
E|----------------------|-------------------|

e-Mail me andrew.liu9@gmail.com for suggestions

Key
H: Hammer Off
P: Pull Off
B: Bend
~: Emphasis
Tap to rate this tab
 
# A B C D E F G H I J K L M N O P Q R S T U V W X Y Z