Sum 41 - Screaming Bloody Murder tab

Band: Sum 41
Song: SMB
Tuning: Half Step.


I submitted another tab for this song, but this is more correct.
This is 99& correct. It took me over an hour do tabs this.

Intro: Piano part.
Chords are:
C#m, G#m, Em, B, A, Em, G#m

Intro: Distortion
E---------------------------------------------|
B---------------------------------------------|
G---------------------------------------------|
D---7-6---6-------7-6----------------67-----79|
A-------4----4-4------Repeat then--4----44----|
E---------------------------------------------|


Guitar 2 Chords:
Em, F#,  C#m,  A,.

Verse: Guitar Part Thingy: PM
E----------------------------|
B----------------------------|
G----------------------------|
D----------------------------|
A-6-6-4-4-3-3-------3-3-4-4-6|
E------------4--4-4----------|

Verse Chords: With PM
C#m, G#m, Em, G#m, C#m,  A, Em, A, E, B, A ,G#m.

Chorus:

Em, F#m, C#m, A, 

Verse 2:

C#m, A, Em,  Then Verse Part Thingy.

Then: With slides and PM
C#m, G#m, Em, G#m, C#m, A, Em, A

Then Verse Part Thingy

Then Chorus

Then Bridge: With PM play the chords fast with slides.

C#m, G#m, A C#, A, G#m, F#m


SOLO!!!
E---4-4----4-4----2-2----2-2--2-2-----|
B-------5-5----5-5---4-4----4-----4---|
G-------------------------------------|
D-------------------------------------|
A-------------------------------------|
E-------------------------------------|


E--2^--4--2^-4-2^------0)~------2-2^--4-4-4-4----------------|
B---------------------------------------------5^---7-7-7-7-7-|
G------------------------------------------------------------|
D------------------------------------------------------------|
A------------------------------------------------------------|
E------------------------------------------------------------|

E--^-9-9-----|
B--5---------|
G------------|
D------------|
A------------|
E---------3x-|
              \/ * Theses are 11's not 1's.
E--121212121111199999777779999 77744444202-----------------|
B----------------------------------------------------75^-5-|
G----------------------------------------------------------|
D----------------------------------------------------------|
A----------------------------------------------------------|
E----------------------------------------------------------|


E-999999/4-111111/4-1212121214141414161616/17/16/17/16/17-16~/----|
B-----------------------------------------------------------------|
G-----------------------------------------------------------------|
D-----------------------------------------------------------------|
A-----------------------------------------------------------------|
E-----------------------------------------------------------------|


Bridge 2 : With slides 
C#m, G#m, C#m,G#, F#m, A

C#m, A, G#m, F#m

Em, A, G#m, Bm, C#m, C, G#m,
Repeat 
then 
Verse thingy

Then Chorus then Intro Piano Part.
Tap to rate this tab
 
# A B C D E F G H I J K L M N O P Q R S T U V W X Y Z