Sum 41 - Screaming Bloody Murder tab

Screaming Bloody murder-Sum 41 

\------means slide down the neck
{}-----inside brackets means palm mute
__----means hold the note
~-----tilde key means to tremolo pick

They play it a half step down in Eb, but I am lazy and did it in Drop D

e|----------------------------|-----------------------------|
B|----------------------------|-----------------------------|
G|----------------------------|-----------------------------|
D|---6-5---5-----6-5---5------|--6-5---5-----3-5-----5-6----|
A|-------3---3-3-----3---3-3--|------3---3-3-----3-3--------|
E|----------------------------|-----------------------------|


e|----------------------------|-----------------------------|
B|----------------------------|-----------------------------|
G|-----------3----------------|-----------------------------|
D|---------6-------6----------|--6-5---5-----6-5---5--------|
A|-----3-3-----3-3---3--------|------3---3-3-----3---3-3----|
E|----------------------------|-----------------------------|


e|----------------------------|-----------------------------|
B|----------------------------|-----------------------------|
G|----------------------------|--------3--------------------|
D|--6-5---5-----3-5-----5-6---|------6-------6--------------|
A|------3---3-3-----3-3-------|--3-3-----3-3---3------------|
E|----------------------------|-----------------------------|


e|----------------------------|-----------------------------|
B|----------------------------|-----------------------------|
G|----------------------------|-----------------------------|
D|--6-5---5-----6-5---5-------|--6-5---5-----3-5-----5-6----|
A|------3---3-3-----3---3-3---|------3---3-3-----3-3--------|
E|----------------------------|-----------------------------|
 |							    |
e|----------------------------|-----------------------------|
B|----------------------------|-----------------------------|
G|----------------------------|----------5-5-5-5-5-5-5-5----|
D|--1-1-1-1-1-1-1-1-3-3-3-3---|--3-3-3-3-5-5-5-5-5-5-5-5----|
A|--1-1-1-1-1-1-1-1-3-3-3-3---|--3-3-3-3-3-3-3-3-3-3-3-3----|
D|--1-1-1-1-1-1-1-1-3-3-3-3---|--3-3-3-3--------------------|



e|----------------------------|-----------------------------|
B|----------------------------|-----------------------------|
G|-----------3----------------|-----------------------------|
D|---------6-------6----------|--6-5---5-----6-5---5--------|
A|-----3-3-----3-3---3--------|------3---3-3-----3---3-3----|
E|----------------------------|-----------------------------|
 |							    |
e|----------------------------|-----------------------------|
B|----------------------------|-----------------------------|
G|----------------------------|-----------------------------|
D|-----6-6-6-6-6-6-6-6--------|--1-1-1-1-1-1-1-1-3-3-3-3----|
A|-----6-6-6-6-6-6-6-6--------|--1-1-1-1-1-1-1-1-3-3-3-3----|
D|-----6-6-6-6-6-6-6-6--------|--1-1-1-1-1-1-1-1-3-3-3-3----|

e|----------------------------|-----------------------------|
B|----------------------------|-----------------------------|
G|----------------------------|--------------8--------------|
D|--6-5---5\------------------|--------------8--------------|
A|------3-5\------------------|-----------------------------|
E|----------------------------|-----------------------------|
 |							    |
e|----------------------------|-----------------------------|
B|----------------------------|-----------------------------|
G|--------5-------------------|-----------------------------|
D|--3-3-3-5-------------------|-----------------------------|
A|--3-3-3-5-------------------|-----------------------------|
D|--3-3-3-.-------------------|-----------------------------|


e|----------------------------|-----------------------------|
B|----------------------------|-----------------------------|
G|----------------------------|-----------------------------|
D|----------------------------|-----------------------------|
A|-{5-5-3-3-2-2---------2-2---|--3-3-5-5-3-3---3------------|
D|--------------6-6-5-5-------|------------------6-6---6----|
 |							    |
e|----------------------------|-----------------------------|
B|----------------------------|-----------------------------|
G|----------------------------|-----------------------------|
D|----------------------------|----------5-5-5-5------------|
A|-{5-5-3-3-2-2---------2-2---|--3-3-5-5-3-3-3-3-6-6-6-6----|
D|--------------6-6-5-5-------|------------------6-6-6-6----|




e|----------------------------|-----------------------------|
B|----------------------------|-----------------------------|
G|----------------------------|-----------------------------|
D|----------------------------|-----------------------------|
A|------------------3-3---3---|--------------------------6-6|
D|--5-5---5-3-3---3-----------|--6-6---6-1-1---1-3-3---3----|
 |							    |
e|----------------------------|-----------------------------|
B|----------------------------|-----------------------------|
G|----------------------------|-----------------------------|
D|------------------5-5-5-5---|--------------------------8-8|
A|--5-5-5-5-3-3-3-3-3-3-3-3---|--6-6-6-6-1-1-1-1-3-3-3-3-6-6|
D|--5-5-5-5-3-3-3-3-----------|--6-6-6-6-1-1-1-1-3-3-3-3----|


e|----------------------------|-----------------------------|
B|----------------------------|-----------------------------|
G|----------------------------|-----------------------------|
D|----------------------------|-----------------------------|
A|---6------------------------|5-5-3-3-2-2-6-6}-------------|
D|-----8-8---8-6-6---6-5-5---5|-----------------------------|
 |							    |
e|----------------------------|-----------------------------|
B|----------------------------|-----------------------------|
G|-8-8------------------------|------------------4-4-5-5-7-7|
D|-8-8-8-8-8-8----------------|-}--------------------------
A|-6-6-8-8-8-8-6-6-6-6-5-5-5-5|-}------------5-5-2-2-3-3-5-5|
D|-------------6-6-6-6-5-5-5-5|-}------------5-5------------|







Chorus 1

e|----------------------------|-----------------------------|
B|----------------------------|-----------------------------|
G|----------------------------|----------5-5-5-5-5-5-5-5----|
D|--1-1-1-1-1-1-1-1-3-3-3-3---|--3-3-3-3-5-5-5-5-5-5-5-5----|
A|--1-1-1-1-1-1-1-1-3-3-3-3---|--3-3-3-3-3-3-3-3-3-3-3-3----|
D|--1-1-1-1-1-1-1-1-3-3-3-3---|--3-3-3-3--------------------|
 |							    |
e|----------------------------|-----------------------------|
B|----------------------------|-----------------------------|
G|----------------------------|----------5-5-5-5-5-5-5-5----|
D|--1-1-1-1-1-1-1-1-3-3-3-3---|--3-3-3-3-5-5-5-5-5-5-5-5----|
A|--1-1-1-1-1-1-1-1-3-3-3-3---|--3-3-3-3-3-3-3-3-3-3-3-3----|
D|--1-1-1-1-1-1-1-1-3-3-3-3---|--3-3-3-3--------------------|


e|----------------------------|-----------------------------|
B|----------------------------|-----------------------------|
G|----------------------------|-----------------------------|
D|--6-6-6-6-6-6-6-6-1-1-1-1---|--1-1-1-1-3-3-3-3-3-3-3-3----|
A|--6-6-6-6-6-6-6-6-1-1-1-1---|--1-1-1-1-3-3-3-3-3-3-3-3----|
D|--6-6-6-6-6-6-6-6-1-1-1-1---|--1-1-1-1-3-3-3-3-3-3-3-3----|
 |							    |
e|----------------------------|-----------------------------|
B|----------------------------|-----------------------------|
G|----------------------------|-----------------------------|
D|--6-6-6-6-6-6-6-6-1-1-1-1---|--1-1-1-1-3-3-3-3-3-3-3-3----|
A|--6-6-6-6-6-6-6-6-1-1-1-1---|--1-1-1-1-3-3-3-3-3-3-3-3----|
D|--6-6-6-6-6-6-6-6-1-1-1-1---|--1-1-1-1-3-3-3-3-3-3-3-3----|


e|----------------------------|-----------------------------|
B|----------------------------|-----------------------------|
G|--5-5-5-5-5-5-5-5-----------|-----------------------------|
D|--5-5-5-5-5-5-5-5-6-6-6-6---|--6-6-6-6--------------------|
A|--3-3-3-3-3-3-3-3-6-6-6-6---|--6-6-6-6--------------------|
D|------------------6-6-6-6---|--6-6-6-6--------------------|
 |							    |
e|----------------------------|-----------------------------|
B|----------------------------|-----------------------------|
G|--5-5-5-5-5-5-5-5-----------|-----------------------------|
D|--5-5-5-5-5-5-5-5-6-6-6-6---|--6-6-6-6--------------------|
A|--3-3-3-3-3-3-3-3-6-6-6-6---|--6-6-6-6--------------------|
D|------------------6-6-6-6---|--6-6-6-6--------------------|

					Verse 2
e|----------------------------|-----------------------------|
B|----------------------------|-----------------------------|
G|----------------------------|----------5\-----------------|
D|--1-1-1-1-1-1-1-1-3-3-3-3---|--3-3-3-3-5\-----------------|
A|--1-1-1-1-1-1-1-1-3-3-3-3---|--3-3-3-3-3\-----------------|
D|--1-1-1-1-1-1-1-1-3-3-3-3---|--3-3-3-3--------------------|
 |							    |
e|----------------------------|-----------------------------|
B|----------------------------|-----------------------------|
G|----------------------------|---------{5-5-5-5-5-5-5-5----|
D|--1-1-1-1-1-1-1-1-3-3-3-3---|--3-3-3-3{5-5-5-5-5-5-5-5----|
A|--1-1-1-1-1-1-1-1-3-3-3-3---|--3-3-3-3{3-3-3-3-3-3-3-3----|
D|--1-1-1-1-1-1-1-1-3-3-3-3---|--3-3-3-3--------------------|


e|----------------------------|-----------------------------|
B|----------------------------|-----------------------------|
G|----------------------------|-----------------------------|
D|----------------------------|-----------------------------|
A|----------------------------|-----------------------------|
D|----------------------------|-----------------------------|
 |							    |
e|----------------------------|-----------------------------|
B|----------------------------|-----------------------------|
G|--5-5-5-5-5-5-5-5-----------|-----------------------------|
D|--5-5-5-5-5-5-5-5-6-6-6-6---|--6-6-6-6-1-1-1-1-1-1-1-1----|
A|--3-3-3-3-3-3-3-3-6-6-6-6---|--6-6-6-6-1-1-1-1-1-1-1-1----|
D|------------------6-6-6-6---|--6-6-6-6-1-1-1-1-1-1-1-1----|


e|----------------------------|-----------------------------|
B|----------------------------|-----------------------------|
G|----------------------------|-----------------------------|
D|----------------------------|-----------------------------|
A|-----------------{5-5-3-3---|--2-2---------2-2-3-3-5-5}---|
D|----------------------------|------6-6-5-5----------------|
 |							    |
e|----------------------------|-----------------------------|
B|----------------------------|-----------------------------|
G|----------------------------|-----------------------------|
D|--1-1-1-1-1-1-1-1-3-3-3-3---|--3-3-3-3-3-3-3-3-3-3-3-3----|
A|--1-1-1-1-1-1-1-1-3-3-3-3---|--3-3-3-3-3-3-3-3-3-3-3-3----|
D|--1-1-1-1-1-1-1-1-3-3-3-3---|--3-3-3-3-3-3-3-3-3-3-3-3----|


e|----------------------------|-----------------------------|
B|----------------------------|-----------------------------|
G|------5__-------------------|--------------5__------------|
D|------5__-----6__-----5__---|------3__-----5__-----6__----|
A|--3-3-3__-----6__-----5__---|------3__-3-3-3__-----6__----|
D|----------6-6-6__-5-5-5__---|--3-3-3__---------6-6-6__----|
 |							    |
e|----------------------------|-----------------------------|
B|----------------------------|-----------------------------|
G|----------------------------|-----------------------------|
D|--5-5-5-5-------------------|----------5-5-5-5------------|
A|--3-3-3-3-6-6-6-6-5-5-5-5---|--3-3-3-3-3-3-3-3-6-6-6-6----|
D|----------6-6-6-6-5-5-5-5---|--3-3-3-3---------6-6-6-6----|



e|----------------------------|-----------------------------|
B|----------------------------|-----------------------------|
G|----------------------------|-----------------------------|
D|------1__-----3__-----6__---|------8__-----6__-----5__----|
A|------1__-----3__-----6__---|------8__-----6__-----5__----|
D|--1-1-1__-3-3-3__-6-6-6__---|--8-8-8__-6-6-6__-5-5-5__----|
 |							    |
e|----------------------------|-----------------------------|
B|----------------------------|-----------------------------|
G|----------------------------|-----------------------------|
D|------------------8-8-8-8---|-----------------------------|
A|--1-1-1-1-3-3-3-3-6-6-6-6---|--8-8-8-8-6-6-6-6-5-5-5-5----|
D|--1-1-1-1-3-3-3-3-----------|--8-8-8-8-6-6-6-6-5-5-5-5----|



e|----------------------------|-----------------------------|
B|----------------------------|-----------------------------|
G|----------------------------|-----------------------------|
D|----------------------------|-----------------------------|
A|--5-5-3-3-2-2---------2-2---|--3-3-5-5--------------------|
D|--------------6-6-5-5}------|-----------------------------|
 |							    |
e|----------------------------|-----------------------------|
B|----------------------------|-----------------------------|
G|----------------------------|-----------------------------|
D|----------------------------|-----------------------------|
A|--5-5-3-3-2-2---------2-2---|--3-3-5-5--------------------|
D|--------------6-6-5-5}------|-----------------------------|



Chorus 2

e|----------------------------|-----------------------------|
B|----------------------------|-----------------------------|
G|----------------------------|----------5-5-5-5-5-5-5-5----|
D|--1-1-1-1-1-1-1-1-3-3-3-3---|--3-3-3-3-5-5-5-5-5-5-5-5----|
A|--1-1-1-1-1-1-1-1-3-3-3-3---|--3-3-3-3-3-3-3-3-3-3-3-3----|
D|--1-1-1-1-1-1-1-1-3-3-3-3---|--3-3-3-3--------------------|
 |							    |
e|----------------------------|-----------------------------|
B|----------------------------|-----------------------------|
G|----------------------------|----------5-5-5-5-5-5-5-5----|
D|--1-1-1-1-1-1-1-1-3-3-3-3---|--3-3-3-3-5-5-5-5-5-5-5-5----|
A|--1-1-1-1-1-1-1-1-3-3-3-3---|--3-3-3-3-3-3-3-3-3-3-3-3----|
D|--1-1-1-1-1-1-1-1-3-3-3-3---|--3-3-3-3--------------------|


e|----------------------------|-----------------------------|
B|----------------------------|-----------------------------|
G|----------------------------|-----------------------------|
D|--6-6-6-6-6-6-6-6-1-1-1-1---|--1-1-1-1-3-3-3-3-3-3-3-3----|
A|--6-6-6-6-6-6-6-6-1-1-1-1---|--1-1-1-1-3-3-3-3-3-3-3-3----|
D|--6-6-6-6-6-6-6-6-1-1-1-1---|--1-1-1-1-3-3-3-3-3-3-3-3----|
 |							    |
e|----------------------------|-----------------------------|
B|----------------------------|-----------------------------|
G|----------------------------|-----------------------------|
D|--6-6-6-6-6-6-6-6-1-1-1-1---|--1-1-1-1-3-3-3-3-3-3-3-3----|
A|--6-6-6-6-6-6-6-6-1-1-1-1---|--1-1-1-1-3-3-3-3-3-3-3-3----|
D|--6-6-6-6-6-6-6-6-1-1-1-1---|--1-1-1-1-3-3-3-3-3-3-3-3----|


e|----------------------------|-----------------------------|
B|----------------------------|-----------------------------|
G|--5-5-5-5-5-5-5-5-----------|-----------------------------|
D|--5-5-5-5-5-5-5-5-6-6-6-6---|--6-6-6-6-1-1-1-1-1-1-1-1----|
A|--3-3-3-3-3-3-3-3-6-6-6-6---|--6-6-6-6-1-1-1-1-1-1-1-1----|
D|------------------6-6-6-6---|--6-6-6-6-1-1-1-1-1-1-1-1----|
 |							    |
e|----------------------------|-----------------------------|
B|----------------------------|-----------------------------|
G|--5-5-5-5-5-5-5-5-----------|-----------------------------|
D|--5-5-5-5-5-5-5-5-6-6-6-6---|--6-6-6-6-1-1-1-1-1-1-1-1----|
A|--3-3-3-3-3-3-3-3-6-6-6-6---|--6-6-6-6-1-1-1-1-1-1-1-1----|
D|------------------6-6-6-6---|--6-6-6-6-1-1-1-1-1-1-1-1----|



e|----------------------------|-----------------------------|
B|----------------------------|-----------------------------|
G|------------------5-5-5-5---|--5-5-5-5--------------------|
D|--3-3-3-3-3-3-3-3-5-5-5-5---|--5-5-5-5-6-6-6-6-6-6-6-6----|
A|--3-3-3-3-3-3-3-3-3-3-3-3---|--3-3-3-3-6-6-6-6-6-6-6-6----|
D|--3-3-3-3-3-3-3-3-----------|----------6-6-6-6-6-6-6-6----|
 |							    |
e|----------------------------|-----------------------------|
B|----------------------------|-----------------------------|
G|------------------5-5-5-5---|--5-5-5-5--------------------|
D|--3-3-3-3-3-3-3-3-5-5-5-5---|--5-5-5-5-6-6-6-6-6-6-6-6----|
A|--3-3-3-3-3-3-3-3-3-3-3-3---|--3-3-3-3-6-6-6-6-6-6-6-6----|
D|--3-3-3-3-3-3-3-3-----------|----------6-6-6-6-6-6-6-6----|


e|----------------------------|-----------------------------|
B|----------------------------|-----------------------------|
G|------------------4-4-4-4---|--4-4-4-4--------------------|
D|--1-1-1-1-1-1-1-1-4-4-4-4---|--4-4-4-4--------------------|
A|--1-1-1-1-1-1-1-1-2-2-2-2---|--2-2-2-2--------------------|
D|--1-1-1-1-1-1-1-1-----------|-----------------------------|
 |							    |
e|----------------------------|-----------------------------|
B|----------------------------|-----------------------------|
G|------------------4-4-4-4---|--4-4-4-4--------------------|
D|--1-1-1-1-1-1-1-1-4-4-4-4---|--4-4-4-4--------------------|
A|--1-1-1-1-1-1-1-1-2-2-2-2---|--2-2-2-2--------------------|
D|--1-1-1-1-1-1-1-1-----------|-----------------------------|


Bridge/Solo

e|----------------------------|-----------------------------|
B|----------------------------|-----------------------------|
G|-{5-5555-5-5555-5-5555------|--5-5555-5-5555-5-5555-------|
D|-{5-5555-5-5555-5-5555-5-6--|--5-5555-5-5555-5-5555-8-65--|
A|-{3-3333-3-3333-3-3333-5-6--|--3-3333-3-3333-3-3333-8-65--|
D|-----------------------5-6--|-----------------------8-65--|
 |							    |
e|----------------------------|-----------------------------|
B|----------------------------|-----------------------------|
G|-{5-5555-5-5555-5-5555------|--5-5555-5-5555-5-5555-------|
D|-{5-5555-5-5555-5-5555-5-6--|--5-5555-5-5555-5-5555-8-65--|
A|-{3-3333-3-3333-3-3333-5-6--|--3-3333-3-3333-3-3333-8-65--|
D|-----------------------5-6--|-----------------------8-65--|

						  Solo
e|----------------------------|-----------------------------|
B|----------------------------|-----------------------------|
G|----------------------------|--1212-88-1212-88-1010-77----|
D|--9-9999-9-9999-9-9999}\\---|-----------------------------|
A|--9-9999-9-9999-9-9999}\\---|-----------------------------|
D|--9-9999-9-9999-9-9999}\\---|-----------------------------|
 |							    |
e|----------------------------|-----------------------------|
B|----------------------------|-----------------------------|
G|--5-5555-5-5555-5-5555}-----|--5-5-5-5-5-5-7-7-7-7-7-7----|
D|--5-5555-5-5555-5-5555}-----|--5-5-5-5-5-5-7-7-7-7-7-7----|
A|--3-3333-3-3333-3-3333}-----|--3-3-3-3-3-3-5-5-5-5-5-5----|
D|----------------------------|-----------------------------|


e|----------------------------|-----------------------------|
B|-----8----8-----------------|--8---8---8---6--6--6--------|
G|--10^--10^--10^8________----|--10^-10^-10^-8^-8^-8^-------|
D|----------------------------|-----------------------------|
A|----------------------------|-----------------------------|
D|----------------------------|-----------------------------|
 |							    |
e|----------------------------|-----------------------------|
B|----------------------------|-----------------------------|
G|--8-8-8-8-8-8---------------|--5-5-5-5-5-5-3-3-3-3-3-3----|
D|--8-8-8-8-8-8-6-6-6-6-6-6---|--5-5-5-5-5-5-3-3-3-3-3-3----|
A|--6-6-6-6-6-6-6-6-6-6-6-6---|--3-3-3-3-3-3-1-1-1-1-1-1----|
D|--------------6-6-6-6-6-6---|-----------------------------|

e|-----8---8--8__________-----|-----------------------------|
B|----8---8---8__________-----|--16~15~13~---13~------------|
G|--10^-10^-10^---------------|-----------15~---15~12~15~---|
D|----------------------------|-----------------------------|
A|----------------------------|-----------------------------|
D|----------------------------|-----------------------------|
 |							    |
e|----------------------------|-----------------------------|
B|----------------------------|-----------------------------|
G|----------------------------|--5-5-5-5-5-5-7-7-7-7-7-7----|
D|--6-6-6-6-6-6-5-5-5-5-5-5---|--5-5-5-5-5-5-7-7-7-7-7-7----|
A|--6-6-6-6-6-6-5-5-5-5-5-5---|--3-3-3-3-3-3-5-5-5-5-5-5----|
D|--6-6-6-6-6-6-5-5-5-5-5-5---|-----------------------------|




e|----------------------------|-----------------------------|
B|----------------------------|--11^~~~~~~~~~13^~~~~~~~~~---|
G|--12-121315--10-101213------|-----------------------------|
D|-----------------------9___-|-----------------------------|
A|----------------------------|-----------------------------|
D|----------------------------|-----------------------------|
 |							    |
e|----------------------------|-----------------------------|
B|----------------------------|-----------------------------|
G|--8-8-8-8-8-8---------------|--5-5-5-5-5-5-7-7-7-7-7-7----|
D|--8-8-8-8-8-8-6-6-6-6-6-6---|--5-5-5-5-5-5-7-7-7-7-7-7----|
A|--6-6-6-6-6-6-6-6-6-6-6-6---|--3-3-3-3-3-3-5-5-5-5-5-5----|
D|--------------6-6-6-6-6-6---|-----------------------------|



e|-------------13-15~~~15```--|-----------------------------|
B|--14^~~~~~~~~---------------|-----------------------------|
G|----------------------------|-----------------------------|
D|----------------------------|-----------------------------|
A|----------------------------|-----------------------------|
D|----------------------------|-----------------------------|
 |							    |
e|----------------------------|-----------------------------|
B|----------------------------|-----------------------------|
G|--8-8-8-8-8-8---------------|-----------------------------|
D|--8-8-8-8-8-8-6-6-6-6-6-6---|-----------------------------|
A|--6-6-6-6-6-6-6-6-6-6-6-6---|-----------------------------|
D|--------------6-6-6-6-6-6---|-----------------------------|


e|----------------------------|-----------------------------|
B|----------------------------|-----------------------------|
G|--5-5-5-5-------------------|--5-5-5-5--------------------|
D|--5-5-5-5-5---5-5-3-5-3-1-3-|--5-5-5-5-5--5-5-3-5-3-5-3-5-|
A|--3-3-3-3-5---5-5-3-5-3-1-3-|--3-3-3-3-5--5-5-3-5-3-5-3-5-|
D|----------5---5-5-3-5-3-1-3-|----------5--5-5-3-5-3-5-3-5-|
 |							    |
e|----------------------------|-----------------------------|
B|----------------------------|-----------------------------|
G|--5-5-5-5-------------------|--5-5-5-5--------------------|
D|--5-5-5-5-5---5-5-3-5-3-1-3-|--5-5-5-5-5--5-5-3-5-3-5-3-5-|
A|--3-3-3-3-5---5-5-3-5-3-1-3-|--3-3-3-3-5--5-5-3-5-3-5-3-5-|
D|----------5---5-5-3-5-3-1-3-|----------5--5-5-3-5-3-5-3-5-|


e|----------------------------|-----------------------------|
B|----------------------------|-----------------------------|
G|--8-8-8-8-8-8---------------|--7-7-7-7-5-5-5-5-4-4-4-4----|
D|--8-8-8-8-8-8-6-6-6-6-6-6---|--------------------------6--|
A|--6-6-6-6-6-6-6-6-6-6-6-6---|--5-5-5-5-3-3-3-3-2-2-2-2-6--|
D|--------------6-6-6-6-6-6---|--------------------------6--|
 |							    |
e|----------------------------|-----------------------------|
B|----------------------------|-----------------------------|
G|--8-8-8-8-8-8---------------|--7-7-7-7-5-5-5-5-4-4-4-4----|
D|--8-8-8-8-8-8-6-6-6-6-6-6---|--------------------------6--|
A|--6-6-6-6-6-6-6-6-6-6-6-6---|--5-5-5-5-3-3-3-3-2-2-2-2-6--|
D|--------------6-6-6-6-6-6---|--------------------------6--|


e|----------------------------|-----------------------------|
B|----------------------------|-----------------------------|
G|--5-5-5-5-------------------|--5-5-5-5--------------------|
D|--5-5-5-5-5---5-5-3-5-3-1-3-|--5-5-5-5-5--5-5-3-5-3-5-3-5-|
A|--3-3-3-3-5---5-5-3-5-3-1-3-|--3-3-3-3-5--5-5-3-5-3-5-3-5-|
D|----------5---5-5-3-5-3-1-3-|----------5--5-5-3-5-3-5-3-5-|
 ||							    |
e|----------------------------|-----------------------------|
B|----------------------------|-----------------------------|
G|--5-5-5-5-------------------|--5-5-5-5--------------------|
D|--5-5-5-5-5---5-5-3-5-3-1-3-|--5-5-5-5-5--5-5-3-5-3-5-3-5-|
A|--3-3-3-3-5---5-5-3-5-3-1-3-|--3-3-3-3-5--5-5-3-5-3-5-3-5-|
D|----------5---5-5-3-5-3-1-3-|----------5--5-5-3-5-3-5-3-5-|


e|----------------------------|-----------------------------|
B|----------------------------|-----------------------------|
G|--8-8-8-8-8-8---------------|--7-7-5-5-4-4----------------|
D|--8-8-8-8-8-8-6-6-6-6-6-6---|--------------6--------------|
A|--6-6-6-6-6-6-6-6-6-6-6-6---|--5-5-3-3-2-2-6--------------|
D|--------------6-6-6-6-6-6---|--------------6--------------|
 |							    |
e|----------------------------|-----------------------------|
B|----------------------------|-----------------------------|
G|--8-8-8-8-8-8---------------|----------------4-4-5-5-7-7--|
D|--8-8-8-8-8-8-6-6-6-6-6-6---|--------------6--------------|
A|--6-6-6-6-6-6-6-6-6-6-6-6---|--------------6-2-2-3-3-5-5--|
D|--------------6-6-6-6-6-6---|--------------6--------------|


Outro Chorus

e|----------------------------|-----------------------------|
B|----------------------------|-----------------------------|
G|----------------------------|----------5-5-5-5-5-5-5-5----|
D|--1-1-1-1-1-1-1-1-3-3-3-3---|--3-3-3-3-5-5-5-5-5-5-5-5----|
A|--1-1-1-1-1-1-1-1-3-3-3-3---|--3-3-3-3-3-3-3-3-3-3-3-3----|
D|--1-1-1-1-1-1-1-1-3-3-3-3---|--3-3-3-3--------------------|
 |							    |
e|----------------------------|-----------------------------|
B|----------------------------|-----------------------------|
G|----------------------------|----------5-5-5-5-5-5-5-5----|
D|--1-1-1-1-1-1-1-1-3-3-3-3---|--3-3-3-3-5-5-5-5-5-5-5-5----|
A|--1-1-1-1-1-1-1-1-3-3-3-3---|--3-3-3-3-3-3-3-3-3-3-3-3----|
D|--1-1-1-1-1-1-1-1-3-3-3-3---|--3-3-3-3--------------------|


e|----------------------------|-----------------------------|
B|----------------------------|-----------------------------|
G|----------------------------|-----------------------------|
D|--6-6-6-6-6-6-6-6-1-1-1-1---|--1-1-1-1-3-3-3-3-3-3-3-3----|
A|--6-6-6-6-6-6-6-6-1-1-1-1---|--1-1-1-1-3-3-3-3-3-3-3-3----|
D|--6-6-6-6-6-6-6-6-1-1-1-1---|--1-1-1-1-3-3-3-3-3-3-3-3----|
 |							    |
e|----------------------------|-----------------------------|
B|----------------------------|-----------------------------|
G|----------------------------|-----------------------------|
D|--6-6-6-6-6-6-6-6-1-1-1-1---|--1-1-1-1-3-3-3-3-3-3-3-3----|
A|--6-6-6-6-6-6-6-6-1-1-1-1---|--1-1-1-1-3-3-3-3-3-3-3-3----|
D|--6-6-6-6-6-6-6-6-1-1-1-1---|--1-1-1-1-3-3-3-3-3-3-3-3----|


e|----------------------------|-----------------------------|
B|----------------------------|-----------------------------|
G|--5-5-5-5-5-5-5-5-----------|-----------------------------|
D|--5-5-5-5-5-5-5-5-6-6-6-6---|--6-6-6-6-1-1-1-1-1-1-1-1----|
A|--3-3-3-3-3-3-3-3-6-6-6-6---|--6-6-6-6-1-1-1-1-1-1-1-1----|
D|------------------6-6-6-6---|--6-6-6-6-1-1-1-1-1-1-1-1----|
 |							    |
e|----------------------------|-----------------------------|
B|----------------------------|-----------------------------|
G|--5-5-5-5-5-5-5-5-----------|-----------------------------|
D|--5-5-5-5-5-5-5-5-6-6-6-6---|--6-6-6-6-1-1-1-1-1-1-1-1----|
A|--3-3-3-3-3-3-3-3-6-6-6-6---|--6-6-6-6-1-1-1-1-1-1-1-1----|
D|------------------6-6-6-6---|--6-6-6-6-1-1-1-1-1-1-1-1----|



e|----------------------------|-----------------------------|
B|----------------------------|-----------------------------|
G|------------------5-5-5-5---|--5-5-5-5--------------------|
D|--3-3-3-3-3-3-3-3-5-5-5-5---|--5-5-5-5-6-6-6-6-6-6-6-6----|
A|--3-3-3-3-3-3-3-3-3-3-3-3---|--3-3-3-3-6-6-6-6-6-6-6-6----|
D|--3-3-3-3-3-3-3-3-----------|----------6-6-6-6-6-6-6-6----|
 |							    |
e|----------------------------|-----------------------------|
B|----------------------------|-----------------------------|
G|------------------5-5-5-5---|--5-5-5-5--------------------|
D|--3-3-3-3-3-3-3-3-5-5-5-5---|--5-5-5-5-6-6-6-6-6-6-6-6----|
A|--3-3-3-3-3-3-3-3-3-3-3-3---|--3-3-3-3-6-6-6-6-6-6-6-6----|
D|--3-3-3-3-3-3-3-3-----------|----------6-6-6-6-6-6-6-6----|


e|----------------------------|-----------------------------|
B|----------------------------|-----------------------------|
G|----------------------------|----------5-5-5-5-5-5-5-5----|
D|--1-1-1-1-1-1-1-1-3-3-3-3---|--3-3-3-3-5-5-5-5-5-5-5-5----|
A|--1-1-1-1-1-1-1-1-3-3-3-3---|--3-3-3-3-3-3-3-3-3-3-3-3----|
D|--1-1-1-1-1-1-1-1-3-3-3-3---|--3-3-3-3--------------------|
|							    |
e|----------------------------|-----------------------------|
B|----------------------------|-----------------------------|
G|----------------------------|----------5-5-5-5-5-5-5-5----|
D|--1-1-1-1-1-1-1-1-3-3-3-3---|--3-3-3-3-5-5-5-5-5-5-5-5----|
A|--1-1-1-1-1-1-1-1-3-3-3-3---|--3-3-3-3-3-3-3-3-3-3-3-3----|
D|--1-1-1-1-1-1-1-1-3-3-3-3---|--3-3-3-3--------------------|



e|----------------------------|-----------------------------|
B|----------------------------|-----------------------------|
G|----------------------------|-----------------------------|
D|--6-6-6-6-6-6-6-6-6-6-6-6---|--6___________________-------|
A|--6-6-6-6-6-6-6-6-6-6-6-6---|--6___________________-------|
D|--6-6-6-6-6-6-6-6-6-6-6-6---|--6___________________-------|
|					       		    |
e|----------------------------|-----------------------------|
B|----------------------------|-----------------------------|
G|----------------------------|-----------------------------|
D|--6-6-6-6-6-6-6-6-6-6-6-6---|--6___________________-------|
A|--6-6-6-6-6-6-6-6-6-6-6-6---|--6___________________-------|
D|--6-6-6-6-6-6-6-6-6-6-6-6---|--6___________________-------|
Tap to rate this tab
 
# A B C D E F G H I J K L M N O P Q R S T U V W X Y Z