Song name
# A B C D E F G H I J K L M N O P Q R S T U V W X Y Z

Sum 41 - Screaming Bloody Murder tab

-----------------------------------------------------------------------------
			                         Screaming Bloody Murder  - Sum 41
-----------------------------------------------------------------------------
I do not take full credit for tabbing this song.  I figured out the majority of it, but 
a guitar instructor helped with the solo and part after that.

*I am not sure what happened to the * (stars) which I used for palm mutes.  If they are 
not lined up with the notes, they just go with the notes above.*  **If they are off for 
Verse 2 still, every third note is NOT palm muted, but the rest are.**

Tuning: Full Step Down

Intro - Clean
 "I'm not quiet myself...." 0:00
 "I have myself to blame....." 0:12
d|--1---1-----------------1---1------1---1--------|
A|--3---3------2---2------3---3------1---1--------|
F|--2---2------2---2------3---3------2---2--------|
C|--0---0------2---2------3---3------3---3--------|
G|-------------0---0------------------------------|
D|------------------------------------------------|

Intro cont.
 "Guess we all..."  0:06
 "Guess I don't..."    0:18
--0---0------1---1------1---1------0---0----------|
--2---2------3---3------1---1------2---2----------|
--0---0------3---3------2---2------2---2----------|      X2
--2---2------3---3------3---3------2---2----------|
--------------------------------------------------|
--------------------------------------------------|


Guitar Riff 0:27 - 0:42
d|---------------------------------------------------------------------|
A|---------------------------------------------------------------------|
F|---------------------------------------------------------------------|
C|---------------------------------------------------------------------|
G|--8-7-0-7-0-8-7-0-7-0-8-7-0-7-0-5-7-0-0-7-8-0-8-10-0-0-7-0-----------|      X3
D|---------------------------------------------------------------------|

Guitar Riff 4th Time 0:42-0:45
d|---------------------------------------------------------------------|
A|---------------------------------------------------------------------|
F|---------------------------------------------------------------------|
C|---------------------------------------------------------------------|
G|--8-7-0-7-0-8-7-0-7-0-8-7-0-7~~--------------------------------------|
D|---------------------------------------------------------------------|

Bass Line. "Gods got no plan for me.."

Verse 1 Riff: "Got the patience or the..." 0:52-0:55
d|--------------------------------------|
A|--------------------------------------|
F|--------------------------------------|
C|--------------------------------------|
G|--7-7-5-5-4-4---------4-4-5-5-7-7-----|
D|--------------5-5-5-5-----------------|
    * * * * * * * * * * * * * * * * * * * * *

Verse 1: "What can I...." 0:56-1:00
d|-------------------------------------------------------------------|
A|-------------------------------------------------------------------|
F|-------------------------------------------------------------------|
C|--7-7-7-7-2-2-2-2---------2-2-2-2-7-7-7-7-3-3-3-3---------3-3-3-3--|
G|--5-5-5-5-0-0-0-0-3-3-3-3-0-0-0-0-5-5-5-5-1-1-1-1-3-3-3-3-1-1-1-1--|
D|------------------1-1-1-1-------------------------1-1-1-1----------|
 * * * * * * * * * * * * * * * * * * * * * * * * * * * * * * * * * * * * *
Verse 1 cont. "I'm not forsaken..." 1:00-1:05
d|-------------------------------------------------------------------|
A|-------------------------------------------------------------------|
F|-------------------------------------------------------------------|
C|----------5-5-5-5-3-3-3-3-2-2-2-2----------------------------------|
G|--3-3-3-3-3-3-3-3-1-1-1-1-0-0-0-0-7-7-5-5-4-4---------4-4-5-5-7-7--|
D|--1-1-1-1-------------------------------------5-5-5-5--------------|
* * * * * * * * * * * * * * * * * * * * * * ** * * * * * * * * * * * * *

Chorus: "Tear me open..." 1:05-1:18
d|--------------------------------------------------------------------|
A|--------------------------------------------------------------------|
F|----------------------------------7-7-7-7-7-7-7-7-------------------|
C|--3-3-3-3-3-3-3-3-5-5-5-5-5-5-5-5-7-7-7-7-7-7-7-7-8-8-8-8-8-8-8-8---|
G|--3-3-3-3-3-3-3-3-5-5-5-5-5-5-5-5-5-5-5-5-5-5-5-5-8-8-8-8-8-8-8-8---|
D|--1-1-1-1-1-1-1-1-3-3-3-3-3-3-3-3-----------------6-6-6-6-6-6-6-6---|

Verse 2: "Well I guess it's time..." 1:19-1:28
D|---------------------------------------------------------|
A|---------------------------------------------------------|
F|---------------------------------------------------------|
C|--7-------------10---------------------------------------|
G|--5-X8---8------8-X8--7-7-5-5-4-4--------4-4-5-5-7-7-----|
D|---------6-X8-------------------- 5-5-5-5----------------|
      * * * * * * * * * * * * * * * * * * * * * * * *

Verse 2 Cont.: "I don't want the fate..." 1:28-1:33
D|---------------------------------------------------------------------|
A|---------------------------------------------------------------------|
F|---------------------------------------------------------------------|
C|--7-7-7-2-2-2-------2-2-2-7-7-7-3-3-3-------3-3-3--------------------|
G|--5-5-5-0-0-0-3-3-3-0-0-0-5-5-5-1-1-1-3-3-3-1-1-1--------------------|
D|--------------1-1-1-------------------1-1-1--------------------------|
         *  *        *   *       *   *      *   *        *   *        *  *       *   *       *   *


Verse 2 cont.: "I can't prove it..." 1:33-1:38
d|-------------------------------------------------------------|
A|-------------------------------------------------------------|
F|-------------------------------------------------------------|
C|--------5-5-5-3-3-3-2-2-2------------------------------------|
G|--3-3-3-3-3-3-1-1-1-0-0-0-7-7-5-5-4-4---------4-4-5-5-7-7----|
D|--1-1-1-------------------------------5-5-5-5----------------|
         *   *       *  *        *  *        *   *        * *   *   *   *  *   *   *


Chorus: "Tear me open..." 1:38-1:55
d|--------------------------------------------------------------------|
A|--------------------------------------------------------------------|
F|----------------------------------7-7-7-7-7-7-7-7-------------------|
C|--3-3-3-3-3-3-3-3-5-5-5-5-5-5-5-5-7-7-7-7-7-7-7-7-8-8-8-8-8-8-8-8---|
G|--3-3-3-3-3-3-3-3-5-5-5-5-5-5-5-5-5-5-5-5-5-5-5-5-8-8-8-8-8-8-8-8---|
D|--1-1-1-1-1-1-1-1-3-3-3-3-3-3-3-3-----------------6-6-6-6-6-6-6-6---|


Bridge: 1:55-1:58
d|-----------------------------------------------------|
A|-----------------------------------------------------|
F|-----------------------------------------------------|
C|--7--------------7--------------7--------------------|
G|--5--5-5-5-5-5-5-5--5-5-5-5-5-5-5--5-5-5-5-5-5-7--8--|
D|-----------------------------------------------5--6--|
                * * * * * * * * *         * * * * * * * * *          * * * * * * * * *
Bridge cont: 1:55-2:01
--------------------------------------------------------|
--------------------------------------------------------|
--------------------------------------------------------|
--7--------------7--------------7-----------------------|
--5--5-5-5-5-5-5-5--5-5-5-5-5-5-5--5-5-5-5-5-5-8--7--5--|
-----------------------------------------------6--5--3--|
           * * * * * * * * *         * * * * * * * * *          * * * * * * * *
Bridge cont: 2:01-2:03
---------------------------------------------------------|
---------------------------------------------------------|
---------------------------------------------------------|
---------------------------------------------------------|
--7--------------7--------------7------------------5-----|
--5--5-5-5-5-5-5-5--5-5-5-5-5-5-5--5-5-5-5-5-5-5-5-5-----|
            * * * * * * * * *         * * * * * * * * *          * * * * * * * * * * * * *

Guitar Solo: 2:03-2:08
d|------------------------------------------------------------|
A|--10-10-------10-10-------8-8-----8-8-------10----10--------|
F|--------10-10-------10-10-----9-9-----9--12b---12b--12b--10-|
C|------------------------------------------------------------|
G|------------------------------------------------------------|
D|------------------------------------------------------------|

Guitar Solo part 2: 2:08-2:12
------------------------------------10----10---10----|
--10-10-10-10-10-10-8-8-8-8-8-8-----10----10---10----|
--------------------------------12b---12b---12b------|
-----------------------------------------------------|
-----------------------------------------------------|
-----------------------------------------------------|

Guitar Solo part 3: 2:12-2:15
--13-13-13-13-12-12-12-12-10-10-10-10-----------10-10-10-10------------|
-------------------------------------13-13-13-13-----------13-13-13-13-|
-----------------------------------------------------------------------|
-----------------------------------------------------------------------|
-----------------------------------------------------------------------|
-----------------------------------------------------------------------|

Guitar Solo part 4: 2:15- 2:18
-------------------------------------------------------------|
--10-10-10-10-13-13-13-13-10--10-----------------------------|
---------------------------------12p10h12--12br-10-----------|
-------------------------------------------------11----------|
-------------------------------------------------------------|
-------------------------------------------------------------|

Guitar Solo part 5: 2:18-2:24
-10x8--12x8--13x8--17x8--17br17br17br-----------------------|
------------------------------------------------------------|
------------------------------------------------------------|
------------------------------------------------------------|
------------------------------------------------------------|
------------------------------------------------------------|
     (I think each note is played 8 times, it may be more)

Part after Solo: "Cause I..." 2:25-2:30
                           "I'm my worst...." 2:35-2:40
d|------------------------------------------------------------------|
A|------------------------------------------------------------------|
F|------------------------------------------------------------------|
C|--7-7-7-7-------------------------7-7-7-7-------------------------|
G|--5-5-5-5-7-7-7-7-5-5-5-5-3-3-3-3-5-5-5-5-8-8-8-8-7-7-7-7-5-5-5-5-|
D|----------5-5-5-5-3-3-3-3-1-1-1-1---------6-6-6-6-5-5-5-5-3-3-3-3-|

Cont: "..Suffocate to the ...."2:30-2:35
            "...Can't be saved..." 2:40-2:44
---------------------------------------------|
---------------------------------------------|
--10-----------9-----7-----6-----------------|
--10-X8--8-----x-X4--x-X4--x-X4--7-7---------|       X2
--8------8-X8--7-----5-----4-----x-x---------|
---------6-----------------------5-5---------|


Chorus: "Tear me open..." 2:45-3:00
d|--------------------------------------------------------------------|
A|--------------------------------------------------------------------|
F|----------------------------------7-7-7-7-7-7-7-7-------------------|
C|--3-3-3-3-3-3-3-3-5-5-5-5-5-5-5-5-7-7-7-7-7-7-7-7-8-8-8-8-8-8-8-8---|   X3
G|--3-3-3-3-3-3-3-3-5-5-5-5-5-5-5-5-5-5-5-5-5-5-5-5-8-8-8-8-8-8-8-8---|
D|--1-1-1-1-1-1-1-1-3-3-3-3-3-3-3-3-----------------6-6-6-6-6-6-6-6---|

Chorus (Last time) 3:00-3:06
d|--------------------------------------------------------------------|
A|--------------------------------------------------------------------|
F|----------------------------------7-7-7-7-7-7-7-7-6-6-6-6-----------|
C|--3-3-3-3-3-3-3-3-5-5-5-5-5-5-5-5-7-7-7-7-7-7-7-7-6-6-6-6-7-7-7-7-8~|
G|--3-3-3-3-3-3-3-3-5-5-5-5-5-5-5-5-5-5-5-5-5-5-5-5-4-4-4-4-7-7-7-7-8~|
D|--1-1-1-1-1-1-1-1-3-3-3-3-3-3-3-3-------------------------5-5-5-5-6~|

Outro: "These days are strange..."3:11-3:21
  Same as intro but end on:
d|--0~---------|
A|--2~---------|
F|--2~---------|
C|--2~---------|
G|-------------|
D|-------------|
Tap to rate this tab
 
# A B C D E F G H I J K L M N O P Q R S T U V W X Y Z