Song name
# A B C D E F G H I J K L M N O P Q R S T U V W X Y Z

Sum 41 - Blood In My Eyes tab

Sum 41 - Blood In My Eyes

3 Guitars:
1. Clean Guitar
2. Distortion Guitar-1
3. Distortion Guitar-2

Standard Tuning


Clean Guitar



     E  E  Q    E  E  Q       E  E  Q    E  E  Q       E  E  Q    E  E  Q     
E||--------0----------0----|--------0----------0----|--------0----------0----|
B||--8--8-------8--8-------|--7--7-------7--7-------|--4--4-------4--4-------|
G||------------------------|------------------------|------------------------|
D||------------------------|------------------------|------------------------|
A||------------------------|------------------------|------------------------|
E||------------------------|------------------------|------------------------|


  E  E  Q    E  E  Q       E  E  Q    E  E  Q       E  E  Q    E  E  Q     
--------0----------0----|--------0----------0----|--------0----------0----|
--5--5-------5--5-------|--8--8-------8--8-------|--7--7-------7--7-------|
------------------------|------------------------|------------------------|
------------------------|------------------------|------------------------|
------------------------|------------------------|------------------------|
------------------------|------------------------|------------------------|


  E  E  Q    E  E  Q       E  E  Q    E  E  Q       E  E  Q    E  E  Q     
--------0----------0----|--------0----------0----|--------0----------0----|
--4--4-------4--4-------|--5--5-------5--5-------|--8--8-------8--8-------|
------------------------|------------------------|------------------------|
------------------------|------------------------|------------------------|
------------------------|------------------------|------------------------|
------------------------|------------------------|------------------------|


  E  E  Q    E  E  Q       E  E  Q    E  E  Q       E  E  Q    E  E  Q     
--------0----------0----|--------0----------0----|--------0----------0----|
--7--7-------7--7-------|--4--4-------4--4-------|--5--5-------5--5-------|
------------------------|------------------------|------------------------|
------------------------|------------------------|------------------------|
------------------------|------------------------|------------------------|
------------------------|------------------------|------------------------|


  E  E  Q    E  E  Q       E  E  Q    E  E  Q       E  E  Q    E  E  Q     
--------0----------0----|--------0----------0----|--------0----------0----|
--8--8-------8--8-------|--7--7-------7--7-------|--4--4-------4--4-------|
------------------------|------------------------|------------------------|
------------------------|------------------------|------------------------|
------------------------|------------------------|------------------------|
------------------------|------------------------|------------------------|


  ^                                                                             
  W                   W                   W                   W                 
--0----------------|--L----------------|-------------------|-------------------|
--5----------------|--L----------------|-------------------|-------------------|
-------------------|-------------------|-------------------|-------------------|
-------------------|-------------------|-------------------|-------------------|
-------------------|-------------------|-------------------|-------------------|
-------------------|-------------------|-------------------|-------------------|


  W                   W                   W                   W                 
-------------------|-------------------|-------------------|-------------------|
-------------------|-------------------|-------------------|-------------------|
-------------------|-------------------|-------------------|-------------------|
-------------------|-------------------|-------------------|-------------------|
-------------------|-------------------|-------------------|-------------------|
-------------------|-------------------|-------------------|-------------------|


  W                   W                   W                   W                 
-------------------|-------------------|-------------------|-------------------|
-------------------|-------------------|-------------------|-------------------|
-------------------|-------------------|-------------------|-------------------|
-------------------|-------------------|-------------------|-------------------|
-------------------|-------------------|-------------------|-------------------|
-------------------|-------------------|-------------------|-------------------|


  W                   W                   W                   W                 
-------------------|-------------------|-------------------|-------------------|
-------------------|-------------------|-------------------|-------------------|
-------------------|-------------------|-------------------|-------------------|
-------------------|-------------------|-------------------|-------------------|
-------------------|-------------------|-------------------|-------------------|
-------------------|-------------------|-------------------|-------------------|


  W                   W                   W                 
-------------------|-------------------|-------------------|
-------------------|-------------------|-------------------|
-------------------|-------------------|-------------------|
-------------------|-------------------|-------------------|
-------------------|-------------------|-------------------|
-------------------|-------------------|-------------------|


  E  E  E  E  E  E     E  E  E  E  E  E     E  E  E  E  E  E   
--------------------|--------------------|--------------------|
-----------8--------|-----------8--------|-----------4--------|
--------9-----9-----|--------9-----9-----|--------4-----4-----|
-----9-----------9--|-----9-----------9--|-----4-----------4--|
--7-----------------|--7-----------------|--2-----------------|
--------------------|--------------------|--------------------|


  E  E  E  E  E  E     E  E  E  E  E  E     E  E  E  E  E  E   
--------------------|--------------------|--------------------|
-----------4--------|-----------5--------|--------------------|
--------4-----4-----|--------5-----5-----|-----------4--------|
-----4-----------4--|-----5-----------5--|--------5-----5-----|
--2-----------------|--3-----------------|-----5-----------5--|
--------------------|--------------------|--3-----------------|


  E  E  E  E  E  E     E  E  E  E  E  E     E  E  E  E  E  E   
--------------------|--------------------|--------------------|
-----------3--------|-----------8--------|-----------8--------|
--------4-----4-----|--------9-----9-----|--------9-----9-----|
-----4-----------4--|-----9-----------9--|-----9-----------9--|
--2-----------------|--7-----------------|--7-----------------|
--------------------|--------------------|--------------------|


  E  E  E  E  E  E     E  E  E  E  E  E     E  E  E  E  E  E   
--------------------|--------------------|--------------------|
-----------5--------|--------------------|-----------8--------|
--------5-----5-----|-----------4--------|--------9-----9-----|
-----5-----------5--|--------5-----5-----|-----9-----------9--|
--3-----------------|-----5-----------5--|--7-----------------|
--------------------|--3-----------------|--------------------|


  E  E  E  E  E  E     E  E  E  E  E  E     E  E  E  E  E  E     H.            
--------------------|--------------------|--------------------|---------------|
-----------8--------|-----------5--------|-----------4--------|---------------|
--------9-----9-----|--------5-----5-----|--------5-----5-----|---------------|
-----9-----------9--|-----5-----------5--|-----5-----------5--|---------------|
--7-----------------|--3-----------------|--3-----------------|---------------|
--------------------|--------------------|--------------------|---------------|


  H.              H.              H.              H.              H.            
---------------|---------------|---------------|---------------|---------------|
---------------|---------------|---------------|---------------|---------------|
---------------|---------------|---------------|---------------|---------------|
---------------|---------------|---------------|---------------|---------------|
---------------|---------------|---------------|---------------|---------------|
---------------|---------------|---------------|---------------|---------------|


  H.              H.              H.              H.              H.            
---------------|---------------|---------------|---------------|---------------|
---------------|---------------|---------------|---------------|---------------|
---------------|---------------|---------------|---------------|---------------|
---------------|---------------|---------------|---------------|---------------|
---------------|---------------|---------------|---------------|---------------|
---------------|---------------|---------------|---------------|---------------|


  H.              H.              H.              H.              H.            
---------------|---------------|---------------|---------------|---------------|
---------------|---------------|---------------|---------------|---------------|
---------------|---------------|---------------|---------------|---------------|
---------------|---------------|---------------|---------------|---------------|
---------------|---------------|---------------|---------------|---------------|
---------------|---------------|---------------|---------------|---------------|


  W                   W                   W                   W                 
-------------------|-------------------|-------------------|-------------------|
-------------------|-------------------|-------------------|-------------------|
-------------------|-------------------|-------------------|-------------------|
-------------------|-------------------|-------------------|-------------------|
-------------------|-------------------|-------------------|-------------------|
-------------------|-------------------|-------------------|-------------------|


  W                   E  E  E  E  E  E     E  E  E  E  E  E   
-------------------|--------------------|--------------------|
-------------------|-----------8--------|-----------8--------|
-------------------|--------9-----9-----|--------9-----9-----|
-------------------|-----9-----------9--|-----9-----------9--|
-------------------|--7-----------------|--7-----------------|
-------------------|--------------------|--------------------|


  E  E  E  E  E  E     E  E  E  E  E  E     E  E  E  E  E  E   
--------------------|--------------------|--------------------|
-----------4--------|-----------4--------|-----------5--------|
--------4-----4-----|--------4-----4-----|--------5-----5-----|
-----4-----------4--|-----4-----------4--|-----5-----------5--|
--2-----------------|--2-----------------|--3-----------------|
--------------------|--------------------|--------------------|


  E  E  E  E  E  E     E  E  E  E  E  E     E  E  E  E  E  E   
--------------------|--------------------|--------------------|
--------------------|-----------3--------|-----------8--------|
-----------4--------|--------4-----4-----|--------9-----9-----|
--------5-----5-----|-----4-----------4--|-----9-----------9--|
-----5-----------5--|--2-----------------|--7-----------------|
--3-----------------|--------------------|--------------------|


  E  E  E  E  E  E     E  E  E  E  E  E     E  E  E  E  E  E   
--------------------|--------------------|--------------------|
-----------8--------|-----------5--------|--------------------|
--------9-----9-----|--------5-----5-----|-----------4--------|
-----9-----------9--|-----5-----------5--|--------5-----5-----|
--7-----------------|--3-----------------|-----5-----------5--|
--------------------|--------------------|--3-----------------|


  E  E  E  E  E  E     E  E  E  E  E  E     E  E  E  E  E  E   
--------------------|--------------------|--------------------|
-----------8--------|-----------8--------|-----------5--------|
--------9-----9-----|--------9-----9-----|--------5-----5-----|
-----9-----------9--|-----9-----------9--|-----5-----------5--|
--7-----------------|--7-----------------|--3-----------------|
--------------------|--------------------|--------------------|


  E  E  E  E  E  E     H.              H.              H.            
--------------------|---------------|---------------|---------------|
-----------4--------|---------------|---------------|---------------|
--------5-----5-----|---------------|---------------|---------------|
-----5-----------5--|---------------|---------------|---------------|
--3-----------------|---------------|---------------|---------------|
--------------------|---------------|---------------|---------------|


  H.              H.              H.              H.              H.            
---------------|---------------|---------------|---------------|---------------|
---------------|---------------|---------------|---------------|---------------|
---------------|---------------|---------------|---------------|---------------|
---------------|---------------|---------------|---------------|---------------|
---------------|---------------|---------------|---------------|---------------|
---------------|---------------|---------------|---------------|---------------|


  H.              H.              H.              H.              H.            
---------------|---------------|---------------|---------------|---------------|
---------------|---------------|---------------|---------------|---------------|
---------------|---------------|---------------|---------------|---------------|
---------------|---------------|---------------|---------------|---------------|
---------------|---------------|---------------|---------------|---------------|
---------------|---------------|---------------|---------------|---------------|


  H.              H.              H.              E  E  Q    E  E  Q     
---------------|---------------|---------------|--------0----------0----|
---------------|---------------|---------------|--8--8-------8--8-------|
---------------|---------------|---------------|------------------------|
---------------|---------------|---------------|------------------------|
---------------|---------------|---------------|------------------------|
---------------|---------------|---------------|------------------------|


  E  E  Q    E  E  Q       E  E  Q    E  E  Q       E  E  Q    E  E  Q     
--------0----------0----|--------0----------0----|--------0----------0----|
--7--7-------7--7-------|--4--4-------4--4-------|--5--5-------5--5-------|
------------------------|------------------------|------------------------|
------------------------|------------------------|------------------------|
------------------------|------------------------|------------------------|
------------------------|------------------------|------------------------|


  ^                                                                             
  W                   W                   W                   W                 
--0----------------|--L----------------|-------------------|-------------------|
--5----------------|--L----------------|-------------------|-------------------|
-------------------|-------------------|-------------------|-------------------|
-------------------|-------------------|-------------------|-------------------|
-------------------|-------------------|-------------------|-------------------|
-------------------|-------------------|-------------------|-------------------|


  W                   W                   W                   W                 
-------------------|-------------------|-------------------|-------------------|
-------------------|-------------------|-------------------|-------------------|
-------------------|-------------------|-------------------|-------------------|
-------------------|-------------------|-------------------|-------------------|
-------------------|-------------------|-------------------|-------------------|
-------------------|-------------------|-------------------|-------------------|


  W                   W                   W                   W                 
-------------------|-------------------|-------------------|-------------------|
-------------------|-------------------|-------------------|-------------------|
-------------------|-------------------|-------------------|-------------------|
-------------------|-------------------|-------------------|-------------------|
-------------------|-------------------|-------------------|-------------------|
-------------------|-------------------|-------------------|-------------------|


  W                   W                   W                   W                 
-------------------|-------------------|-------------------|-------------------|
-------------------|-------------------|-------------------|-------------------|
-------------------|-------------------|-------------------|-------------------|
-------------------|-------------------|-------------------|-------------------|
-------------------|-------------------|-------------------|-------------------|
-------------------|-------------------|-------------------|-------------------|


  W                   W                   W                   W                 
-------------------|-------------------|-------------------|-------------------|
-------------------|-------------------|-------------------|-------------------|
-------------------|-------------------|-------------------|-------------------|
-------------------|-------------------|-------------------|-------------------|
-------------------|-------------------|-------------------|-------------------|
-------------------|-------------------|-------------------|-------------------|


  W                   W                   W                   W                 
-------------------|-------------------|-------------------|-------------------|
-------------------|-------------------|-------------------|-------------------|
-------------------|-------------------|-------------------|-------------------|
-------------------|-------------------|-------------------|-------------------|
-------------------|-------------------|-------------------|-------------------|
-------------------|-------------------|-------------------|-------------------|


  W                   W                   W                   W                 
-------------------|-------------------|-------------------|-------------------|
-------------------|-------------------|-------------------|-------------------|
-------------------|-------------------|-------------------|-------------------|
-------------------|-------------------|-------------------|-------------------|
-------------------|-------------------|-------------------|-------------------|
-------------------|-------------------|-------------------|-------------------|


  W                   W                   W                   H.            
-------------------|-------------------|-------------------|---------------|
-------------------|-------------------|-------------------|---------------|
-------------------|-------------------|-------------------|---------------|
-------------------|-------------------|-------------------|---------------|
-------------------|-------------------|-------------------|---------------|
-------------------|-------------------|-------------------|---------------|


  H.              H.              H.              H.              H.            
---------------|---------------|---------------|---------------|---------------|
---------------|---------------|---------------|---------------|---------------|
---------------|---------------|---------------|---------------|---------------|
---------------|---------------|---------------|---------------|---------------|
---------------|---------------|---------------|---------------|---------------|
---------------|---------------|---------------|---------------|---------------|


  H.              H.              H.              H.              H.            
---------------|---------------|---------------|---------------|---------------|
---------------|---------------|---------------|---------------|---------------|
---------------|---------------|---------------|---------------|---------------|
---------------|---------------|---------------|---------------|---------------|
---------------|---------------|---------------|---------------|---------------|
---------------|---------------|---------------|---------------|---------------|


  H.              H.              H.              H.              H.            
---------------|---------------|---------------|---------------|---------------|
---------------|---------------|---------------|---------------|---------------|
---------------|---------------|---------------|---------------|---------------|
---------------|---------------|---------------|---------------|---------------|
---------------|---------------|---------------|---------------|---------------|
---------------|---------------|---------------|---------------|---------------|


  H.              H.             
---------------|---------------||
---------------|---------------||
---------------|---------------||
---------------|---------------||
---------------|---------------||
---------------|---------------||



Distortion Guitar-1



     W                   W                   W                 
E||-------------------|-------------------|-------------------|
B||-------------------|-------------------|-------------------|
G||-------------------|-------------------|-------------------|
D||-------------------|-------------------|-------------------|
A||-------------------|-------------------|-------------------|
E||-------------------|-------------------|-------------------|


  W                   W                   W                   W                 
-------------------|-------------------|-------------------|-------------------|
-------------------|-------------------|-------------------|-------------------|
-------------------|-------------------|-------------------|-------------------|
-------------------|-------------------|-------------------|-------------------|
-------------------|-------------------|-------------------|-------------------|
-------------------|-------------------|-------------------|-------------------|


  W                   W                   W                   W                 
-------------------|-------------------|-------------------|-------------------|
-------------------|-------------------|-------------------|-------------------|
-------------------|-------------------|-------------------|-------------------|
-------------------|-------------------|-------------------|-------------------|
-------------------|-------------------|-------------------|-------------------|
-------------------|-------------------|-------------------|-------------------|


  W                   W                   W                   W                 
-------------------|-------------------|-------------------|-------------------|
-------------------|-------------------|-------------------|-------------------|
-------------------|-------------------|-------------------|-------------------|
-------------------|-------------------|-------------------|-------------------|
-------------------|-------------------|-------------------|-------------------|
-------------------|-------------------|-------------------|-------------------|


                      |--3--|  |--3-|  |--3--|  |--3-|   
  W                   E  E  E  Q    E  E  E  E  Q    E   
-------------------|------------------------------------|
-------------------|------------------------------------|
-------------------|--9--9--9--9----9--9--9--9--9----9--|
-------------------|------------------------------------|
-------------------|--7--7--7--7----7--7--7--7--7----7--|
-------------------|------------------------------------|


  |--3--|  |--3-|                |--3--|  |--3-|  |--3--|  |--3-|   
  E  E  E  Q    E  Q     Q       E  E  E  Q    E  E  E  E  Q    E   
------------------------------|------------------------------------|
------------------------------|------------------------------------|
--9--9--9--9----9-------------|--9--9--9--9----9--9--9--9--9----9--|
-------------------9----10----|------------------------------------|
--7--7--7--7----7--9----10----|--7--7--7--7----7--7--7--7--7----7--|
-------------------7-----8----|------------------------------------|


  |---3--|  |---3--|  |---3--|  |---3--|     |--3--|  |--3-|  |--3--|  |--3-|   
  E   E  E  E   E  E  E   E  E  E   E  E     E  E  E  Q    E  E  E  E  Q    E   
------------------------------------------|------------------------------------|
------------------------------------------|------------------------------------|
------------------------------------------|--9--9--9--9----9--9--9--9--9----9--|
------------------------------------------|------------------------------------|
--------------------------------4S--5--2--|--7--7--7--7----7--7--7--7--7----7--|
--7p--0--0--8p--0--0--7p--0--0--2S--3--0--|------------------------------------|


  |--3--|  |--3-|                |--3--|  |--3-|  |--3--|  |--3-|   
  E  E  E  Q    E  Q     Q       E  E  E  Q    E  E  E  E  Q    E   
------------------------------|------------------------------------|
------------------------------|------------------------------------|
--9--9--9--9----9-------------|--9--9--9--9----9--9--9--9--9----9--|
-------------------9----10----|------------------------------------|
--7--7--7--7----7--9----10----|--7--7--7--7----7--7--7--7--7----7--|
-------------------7-----8----|------------------------------------|


  |---3--|  |---3--|  |---3--|  |-3|     
  E   E  E  E   E  E  E   E  E  E  Q     
----------------------------------------|
----------------------------------------|
----------------------------------------|
----------------------------------------|
----------------------------------------|
--7p--0--0--8p--0--0--7p--0--0--3-------|


  |--3-|  |---3--|  |---3--|  |---3--|   
  Q    E  E   E  E  E   E  E  E   E  E   
----------------------------------------|
----------------------------------------|
----------------------------------------|
----------------------------------------|
----------------------------------------|
--0----0--7p--0--0--8p--0--0--7p--0--0--|


                             PM        PM  
  |---3--|  |---3--|  |---3--|  |---3--|   
  E   E  E  E   E  E  E   E  E  E   E  E   
------------------------------------------|
------------------------------------------|
------------------------------------------|
------------------------------------------|
----------------------4S--5-----4S--5-----|
--5p--0--0--3p--0--0--2S--3--0--2S--3--0--|


  |--3-|  |---3--|  |---3--|  |---3--|   
  Q    E  E   E  E  E   E  E  E   E  E   
----------------------------------------|
----------------------------------------|
----------------------------------------|
----------------------------------------|
----------------------------------------|
--0----0--7p--0--0--8p--0--0--7p--0--0--|


                             PM        PM  
  |---3--|  |---3--|  |---3--|  |---3--|   
  E   E  E  E   E  E  E   E  E  E   E  E   
------------------------------------------|
------------------------------------------|
------------------------------------------|
------------------------------------------|
----------------------4S--5-----4S--5-----|
--5p--0--0--3p--0--0--2S--3--0--2S--3--0--|


  |--3-|  |---3--|  |---3--|  |---3--|   
  Q    E  E   E  E  E   E  E  E   E  E   
----------------------------------------|
----------------------------------------|
----------------------------------------|
----------------------------------------|
----------------------------------------|
--0----0--7p--0--0--8p--0--0--7p--0--0--|


                             PM        PM  
  |---3--|  |---3--|  |---3--|  |---3--|   
  E   E  E  E   E  E  E   E  E  E   E  E   
------------------------------------------|
------------------------------------------|
------------------------------------------|
------------------------------------------|
----------------------4S--5-----4S--5-----|
--5p--0--0--3p--0--0--2S--3--0--2S--3--0--|


  |--3-|  |---3--|  |---3--|  |---3--|   
  Q    E  E   E  E  E   E  E  E   E  E   
----------------------------------------|
----------------------------------------|
----------------------------------------|
----------------------------------------|
----------------------------------------|
--0----0--7p--0--0--8p--0--0--7p--0--0--|


                             PM        PM                       
  |---3--|  |---3--|  |---3--|  |---3--|                        
  E   E  E  E   E  E  E   E  E  E   E  E     H        H         
------------------------------------------|--------------------|
------------------------------------------|--------------------|
------------------------------------------|--------------------|
------------------------------------------|--2--------2--------|
----------------------4S--5-----4S--5-----|--2--------2--------|
--5p--0--0--3p--0--0--2S--3--0--2S--3--0--|--0--------0--------|


  H        H           Q    H           H.              H.            
--------------------|----------------|---------------|---------------|
--------------------|----------------|---------------|---------------|
--------------------|----------------|---------------|---------------|
--2--------2--------|--2-------------|---------------|---------------|
--2--------2--------|--2-------------|---------------|---------------|
--0--------0--------|--0-------------|---------------|---------------|


  H.              H.              H.              H.              H.            
---------------|---------------|---------------|---------------|---------------|
---------------|---------------|---------------|---------------|---------------|
---------------|---------------|---------------|---------------|---------------|
---------------|---------------|---------------|---------------|--2------------|
---------------|---------------|---------------|---------------|--2------------|
---------------|---------------|---------------|---------------|--0------------|


  E  E  H           H.              E  E  H           H.            
-----------------|---------------|-----------------|---------------|
-----------------|---------------|-----------------|---------------|
-----------------|--5------------|-----------------|---------------|
--2--------------|--5------------|--5--------------|--2------------|
--2--------------|--3------------|--5--------------|--2------------|
--0--------------|---------------|--3--------------|--0------------|


  E  E  H           H.              E  Q    Q.        E  E  E  E  E  E   
-----------------|---------------|-----------------|--------------------|
-----------------|---------------|-----------------|--------------------|
-----------------|--5------------|-----------------|--------------------|
--2--------------|--5------------|--5-------1------|--2--2--2--2--2--2--|
--2--------------|--3------------|--5-------2------|--2--2--2--2--2--2--|
--0--------------|---------------|--3-------0------|--0--0--0--0--0--0--|


  E  E  E  E  E  E     E  E  E  E  E  E     E  E  E  E  E  E   
--------------------|--------------------|--------------------|
--------------------|--------------------|--------------------|
--------------------|--7--7--7--7--7--7--|--------------------|
--5--5--5--5--5--5--|--7--7--7--7--7--7--|--7--7--7--7--7--7--|
--5--5--5--5--5--5--|--5--5--5--5--5--5--|--5--5--5--5--5--5--|
--3--3--3--3--3--3--|--------------------|--5--5--5--5--5--5--|


  E  E  E  E  E  E     E  E  E  E  E  E     E  E  E  E  E  E   
--------------------|--------------------|--------------------|
--------------------|--------------------|--------------------|
--------------------|--------------------|--7--7--7--7--7--7--|
--2--2--2--2--2--2--|--5--5--5--5--5--5--|--7--7--7--7--7--7--|
--2--2--2--2--2--2--|--5--5--5--5--5--5--|--5--5--5--5--5--5--|
--0--0--0--0--0--0--|--3--3--3--3--3--3--|--------------------|


  E  E  E  E  E  E     E  E  E  E  E  E     E  E  E  E  E  E   
--------------------|--------------------|--------------------|
--------------------|--------------------|--------------------|
--------------------|--------------------|--------------------|
--7--7--7--7--7--7--|--2--2--2--2--2--2--|--5--5--5--5--5--5--|
--5--5--5--5--5--5--|--2--2--2--2--2--2--|--5--5--5--5--5--5--|
--5--5--5--5--5--5--|--0--0--0--0--0--0--|--3--3--3--3--3--3--|


  E  E  E  E  E  E     E  E  E  E  E  E     E  E  E  E  E  E   
--------------------|--------------------|--------------------|
--------------------|--------------------|--------------------|
--7--7--7--7--7--7--|--------------------|--------------------|
--7--7--7--7--7--7--|--7--7--7--7--7--7--|--2--2--2--2--2--2--|
--5--5--5--5--5--5--|--5--5--5--5--5--5--|--2--2--2--2--2--2--|
--------------------|--5--5--5--5--5--5--|--0--0--0--0--0--0--|


  E  E  E  E  E  E     E  E  E  E  E  E     E  E  E  E  E  E   
--------------------|--------------------|--------------------|
--------------------|--------------------|--------------------|
--------------------|--7--7--7--7--7--7--|--------------------|
--5--5--5--5--5--5--|--7--7--7--7--7--7--|--7--7--7--7--7--7--|
--5--5--5--5--5--5--|--5--5--5--5--5--5--|--5--5--5--5--5--5--|
--3--3--3--3--3--3--|--------------------|--5--5--5--5--5--5--|


  |--3-|  |---3--|  |---3--|  |---3--|   
  Q    E  E   E  E  E   E  E  E   E  E   
----------------------------------------|
----------------------------------------|
----------------------------------------|
----------------------------------------|
----------------------------------------|
--0----0--7p--0--0--8p--0--0--7p--0--0--|


                             PM        PM  
  |---3--|  |---3--|  |---3--|  |---3--|   
  E   E  E  E   E  E  E   E  E  E   E  E   
------------------------------------------|
------------------------------------------|
------------------------------------------|
------------------------------------------|
----------------------4S--5-----4S--5-----|
--5p--0--0--3p--0--0--2S--3--0--2S--3--0--|


  |--3-|  |---3--|  |---3--|  |---3--|   
  Q    E  E   E  E  E   E  E  E   E  E   
----------------------------------------|
----------------------------------------|
----------------------------------------|
----------------------------------------|
----------------------------------------|
--0----0--7p--0--0--8p--0--0--7p--0--0--|


                             PM        PM                       
  |---3--|  |---3--|  |---3--|  |---3--|                        
  E   E  E  E   E  E  E   E  E  E   E  E     H        H         
------------------------------------------|--------------------|
------------------------------------------|--------------------|
------------------------------------------|--------------------|
------------------------------------------|--2--------2--------|
----------------------4S--5-----4S--5-----|--2--------2--------|
--5p--0--0--3p--0--0--2S--3--0--2S--3--0--|--0--------0--------|


  Q    H           H.              H.              H.            
----------------|---------------|---------------|---------------|
----------------|---------------|---------------|---------------|
----------------|---------------|---------------|---------------|
--2-------------|---------------|---------------|---------------|
--2-------------|---------------|---------------|---------------|
--0-------------|---------------|---------------|---------------|


  H.              H.              H.              H.            
---------------|---------------|---------------|---------------|
---------------|---------------|---------------|---------------|
---------------|---------------|---------------|---------------|
---------------|---------------|---------------|--2------------|
---------------|---------------|---------------|--2------------|
---------------|---------------|---------------|--0------------|


  E  E  H           H.              E  E  H           H.            
-----------------|---------------|-----------------|---------------|
-----------------|---------------|-----------------|---------------|
-----------------|--5------------|-----------------|---------------|
--2--------------|--5------------|--5--------------|--2------------|
--2--------------|--3------------|--5--------------|--2------------|
--0--------------|---------------|--3--------------|--0------------|


  E  E  H           H.              E  Q    Q.        E  E  E  E  E  E   
-----------------|---------------|-----------------|--------------------|
-----------------|---------------|-----------------|--------------------|
-----------------|--5------------|-----------------|--------------------|
--2--------------|--5------------|--5-------1------|--2--2--2--2--2--2--|
--2--------------|--3------------|--5-------2------|--2--2--2--2--2--2--|
--0--------------|---------------|--3-------0------|--0--0--0--0--0--0--|


  E  E  E  E  E  E     E  E  E  E  E  E     E  E  E  E  E  E   
--------------------|--------------------|--------------------|
--------------------|--------------------|--------------------|
--------------------|--7--7--7--7--7--7--|--------------------|
--5--5--5--5--5--5--|--7--7--7--7--7--7--|--7--7--7--7--7--7--|
--5--5--5--5--5--5--|--5--5--5--5--5--5--|--5--5--5--5--5--5--|
--3--3--3--3--3--3--|--------------------|--5--5--5--5--5--5--|


  E  E  E  E  E  E     E  E  E  E  E  E     E  E  E  E  E  E   
--------------------|--------------------|--------------------|
--------------------|--------------------|--------------------|
--------------------|--------------------|--7--7--7--7--7--7--|
--2--2--2--2--2--2--|--5--5--5--5--5--5--|--7--7--7--7--7--7--|
--2--2--2--2--2--2--|--5--5--5--5--5--5--|--5--5--5--5--5--5--|
--0--0--0--0--0--0--|--3--3--3--3--3--3--|--------------------|


  E  E  E  E  E  E     E  E  E  E  E  E     E  E  E  E  E  E   
--------------------|--------------------|--------------------|
--------------------|--------------------|--------------------|
--------------------|--------------------|--------------------|
--7--7--7--7--7--7--|--2--2--2--2--2--2--|--5--5--5--5--5--5--|
--5--5--5--5--5--5--|--2--2--2--2--2--2--|--5--5--5--5--5--5--|
--5--5--5--5--5--5--|--0--0--0--0--0--0--|--3--3--3--3--3--3--|


  E  E  E  E  E  E     E  E  E  E  E  E     E  E  E  E  E  E   
--------------------|--------------------|--------------------|
--------------------|--------------------|--------------------|
--7--7--7--7--7--7--|--------------------|--------------------|
--7--7--7--7--7--7--|--7--7--7--7--7--7--|--2--2--2--2--2--2--|
--5--5--5--5--5--5--|--5--5--5--5--5--5--|--2--2--2--2--2--2--|
--------------------|--5--5--5--5--5--5--|--0--0--0--0--0--0--|


  E  E  E  E  E  E     E  E  E  E  E  E     E  E  E  E  E  E   
--------------------|--------------------|--------------------|
--------------------|--------------------|--------------------|
--------------------|--7--7--7--7--7--7--|--------------------|
--5--5--5--5--5--5--|--7--7--7--7--7--7--|--7--7--7--7--7--7--|
--5--5--5--5--5--5--|--5--5--5--5--5--5--|--5--5--5--5--5--5--|
--3--3--3--3--3--3--|--------------------|--5--5--5--5--5--5--|


  W                   W                   W                   W                 
-------------------|-------------------|-------------------|-------------------|
-------------------|-------------------|-------------------|-------------------|
-------------------|-------------------|-------------------|-------------------|
-------------------|-------------------|-------------------|-------------------|
-------------------|-------------------|-------------------|-------------------|
-------------------|-------------------|-------------------|-------------------|


  E  E  E  E  E  E  E  E     E  E  E  E  E  E  E  E   
--------------------------|--------------------------|
--x--x--x--x--x--x--x--x--|--x--x--x--x--x--x--x--x--|
--x--x--x--x--x--x--x--x--|--x--x--x--x--x--x--x--x--|
--x--x--x--x--x--x--x--x--|--x--x--x--x--x--x--x--x--|
--x--x--x--x--x--x--x--x--|--x--x--x--x--x--x--x--x--|
--------------------------|--------------------------|


  E  E  E  E  E  E  E  E     E  E  E  E  E  E  E  E   
--------------------------|--------------------------|
--x--x--x--x--x--x--x--x--|--x--x--x--x--x--x--x--x--|
--x--x--x--x--x--x--x--x--|--x--x--x--x--x--x--x--x--|
--x--x--x--x--x--x--x--x--|--x--x--x--x--x--x--x--x--|
--x--x--x--x--x--x--x--x--|--x--x--x--x--x--x--x--x--|
--------------------------|--------------------------|


  E  E  E  E  E  E  E  E     E  E  E  E  E  E  E  E   
--------------------------|--------------------------|
--x--x--x--x--x--x--x--x--|--x--x--x--x--x--x--x--x--|
--x--x--x--x--x--x--x--x--|--x--x--x--x--x--x--x--x--|
--x--x--x--x--x--x--x--x--|--x--x--x--x--x--x--x--x--|
--x--x--x--x--x--x--x--x--|--x--x--x--x--x--x--x--x--|
--------------------------|--------------------------|


                                                       PM PM PM    PM PM PM PM  
  E  E  E  E  E  E  E  E     E  E  E  E  E  E  Q       E  E  E  E  E  E  E  E   
--------------------------|-------------------------|--------------------------|
--x--x--x--x--x--x--x--x--|--x--x--x--x--x--x-------|--------------------------|
--x--x--x--x--x--x--x--x--|--9--9--9--9--9--9-------|--------------------------|
--x--x--x--x--x--x--x--x--|--x--x--x--x--x--x-------|--2--1--2--4--------------|
--x--x--x--x--x--x--x--x--|--7--7--7--7--7--7-------|--------------------------|
--------------------------|-------------------------|--------------3--0--2--3--|


  PM PM    PM PM    PM PM    PM PM PM    PM PM PM PM  
  E  E  E  E  E  E  E  E     E  E  E  E  E  E  E  E   
--------------------------|--------------------------|
--------------------------|--------------------------|
--------------------------|--------------------------|
-----------------------1--|--2--1--2--4--------------|
--------2--------2--------|--------------------------|
--0--2-----0--2-----0-----|--------------3--0--2--3--|


  PM PM    PM PM    PM PM                                             
  E  E  E  E  E  E  E  E     H        H            H        H         
--------------------------|--------------------|---------------------|
--------------------------|--------------------|---------------------|
--------------------------|--9--------8--------|--11--------9--------|
-----------------------1--|--------------------|---------------------|
--------2--------2--------|--7--------6--------|---9--------7--------|
--0--2-----0--2-----0-----|--------------------|---------------------|


  H        H            H         H           E  E  E  E  E  E  E  E   
--------------------|----------------------|--------------------------|
--------------------|----------------------|--------------------------|
--9--------8--------|--11--------12--------|--------------------------|
--------------------|----------------------|--------------------------|
--7--------6--------|---9--------10--------|--------------------------|
--------------------|----------------------|--0--0--0--3--3--3--2--2--|


  E  E  E  E  E  E  E  E     E  E  E  E  E  E  E  E   
--------------------------|--------------------------|
--------------------------|--------------------------|
--------------------------|--------------------------|
--------------------------|--------------------------|
--------------------------|--------------------------|
--2--3--3--3--5--5--5--5--|--0--0--0--3--3--3--2--2--|


  E  E  E  E  E  E  E  E     E  E  E  E  E  E  E  E   
--------------------------|--------------------------|
--------------------------|--------------------------|
--------------------------|--------------------------|
--------------------------|--------------------------|
--------------------------|--------------------------|
--2--3--3--3--5--5--5--5--|--0--0--0--3--3--3--2--2--|


  E  E  E  E  E  E  E  E     E  E  E  E  E  E  E  E   
--------------------------|--------------------------|
--------------------------|--------------------------|
--------------------------|--------------------------|
--------------------------|--------------------------|
--------------------------|--------------------------|
--2--3--3--3--5--5--5--5--|--0--0--0--3--3--3--2--2--|


  E  E  E  E  E  E  E  E     E  E  E  E  E  E  E  E   
--------------------------|--------------------------|
--------------x--x--x--x--|--------------------------|
--------------x--x--x--x--|--------------------------|
--------------x--x--x--x--|--------------------------|
--------------x--x--x--x--|--------------------------|
--2--3--3--3--------------|--0--0--0--3--3--3--2--2--|


  E  E  E  E  E  E  E  E     E  E  E  E  E  E  E  E   
--------------------------|--------------------------|
--------------------------|--------------------------|
--------------------------|--------------------------|
--------------------------|--------------------------|
--------------------------|--------------------------|
--2--3--3--3--5--5--5--5--|--0--0--0--3--3--3--2--2--|


  E  E  E  E  E  E  E  E     W                   W                 
--------------------------|-------------------|-------------------|
--x--x--x--x--x--x--x--x--|-------------------|-------------------|
--x--x--x--x--x--x--x--x--|-------------------|-------------------|
--x--x--x--x--x--x--x--x--|--2----------------|--L----------------|
--x--x--x--x--x--x--x--x--|--2----------------|--L----------------|
--------------------------|--0----------------|--L----------------|


  W                   H.              E  E  E  E  E  E     E  E  E  E  E  E   
-------------------|---------------|--------------------|--------------------|
-------------------|---------------|--------------------|--------------------|
-------------------|---------------|--------------------|--------------------|
--L----------------|--L------------|--2--2--2--2--2--2--|--5--5--5--5--5--5--|
--L----------------|--L------------|--2--2--2--2--2--2--|--5--5--5--5--5--5--|
--L----------------|--L------------|--0--0--0--0--0--0--|--3--3--3--3--3--3--|


  E  E  E  E  E  E     E  E  E  E  E  E     E  E  E  E  E  E   
--------------------|--------------------|--------------------|
--------------------|--------------------|--------------------|
--7--7--7--7--7--7--|--------------------|--------------------|
--7--7--7--7--7--7--|--7--7--7--7--7--7--|--2--2--2--2--2--2--|
--5--5--5--5--5--5--|--5--5--5--5--5--5--|--2--2--2--2--2--2--|
--------------------|--5--5--5--5--5--5--|--0--0--0--0--0--0--|


  E  E  E  E  E  E     E  E  E  E  E  E     E  E  E  E  E  E   
--------------------|--------------------|--------------------|
--------------------|--------------------|--------------------|
--------------------|--7--7--7--7--7--7--|--------------------|
--5--5--5--5--5--5--|--7--7--7--7--7--7--|--7--7--7--7--7--7--|
--5--5--5--5--5--5--|--5--5--5--5--5--5--|--5--5--5--5--5--5--|
--3--3--3--3--3--3--|--------------------|--5--5--5--5--5--5--|


  E  E  E  E  E  E     E  E  E  E  E  E     E  E  E  E  E  E   
--------------------|--------------------|--------------------|
--------------------|--------------------|--------------------|
--------------------|--------------------|--7--7--7--7--7--7--|
--2--2--2--2--2--2--|--5--5--5--5--5--5--|--7--7--7--7--7--7--|
--2--2--2--2--2--2--|--5--5--5--5--5--5--|--5--5--5--5--5--5--|
--0--0--0--0--0--0--|--3--3--3--3--3--3--|--------------------|


  E  E  E  E  E  E     E  E  E  E  E  E     E  E  E  E  E  E   
--------------------|--------------------|--------------------|
--------------------|--------------------|--------------------|
--------------------|--------------------|--------------------|
--7--7--7--7--7--7--|--2--2--2--2--2--2--|--5--5--5--5--5--5--|
--5--5--5--5--5--5--|--2--2--2--2--2--2--|--5--5--5--5--5--5--|
--5--5--5--5--5--5--|--0--0--0--0--0--0--|--3--3--3--3--3--3--|


                                            Blood in my eyes!   
  E  E  E  E  E  E     E  E  E  E  E  E     H.                  
--------------------|--------------------|--------------------||
--------------------|--------------------|--------------------||
--7--7--7--7--7--7--|--------------------|--------------------||
--7--7--7--7--7--7--|--7--7--7--7--7--7--|--------------------||
--5--5--5--5--5--5--|--5--5--5--5--5--5--|--------------------||
--------------------|--5--5--5--5--5--5--|--------------------||



Distortion Guitar-2



     W                   W                   W                 
E||-------------------|-------------------|-------------------|
B||-------------------|-------------------|-------------------|
G||-------------------|-------------------|-------------------|
D||-------------------|-------------------|-------------------|
A||-------------------|-------------------|-------------------|
E||-------------------|-------------------|-------------------|


  W                   W                   W                   W                 
-------------------|-------------------|-------------------|-------------------|
-------------------|-------------------|-------------------|-------------------|
-------------------|-------------------|-------------------|-------------------|
-------------------|-------------------|-------------------|-------------------|
-------------------|-------------------|-------------------|-------------------|
-------------------|-------------------|-------------------|-------------------|


  W                   W                   W                   W                 
-------------------|-------------------|-------------------|-------------------|
-------------------|-------------------|-------------------|-------------------|
-------------------|-------------------|-------------------|-------------------|
-------------------|-------------------|-------------------|-------------------|
-------------------|-------------------|-------------------|-------------------|
-------------------|-------------------|-------------------|-------------------|


  W                   W                   W                   W                 
-------------------|-------------------|-------------------|-------------------|
-------------------|-------------------|-------------------|-------------------|
-------------------|-------------------|-------------------|-------------------|
-------------------|-------------------|-------------------|-------------------|
-------------------|-------------------|-------------------|-------------------|
-------------------|-------------------|-------------------|-------------------|


  W                   W                   H        Q     Q     
-------------------|-------------------|----------------------|
-------------------|-------------------|----------------------|
-------------------|-------------------|----------------------|
-------------------|-------------------|-----------9----10----|
-------------------|-------------------|-----------9----10----|
-------------------|-------------------|-----------7-----8----|


                                   |---3--|     |-3|                  
  W                   H.           E   E  E     E  Q    H.            
-------------------|-------------------------|-----------------------|
-------------------|-------------------------|-----------------------|
-------------------|-------------------------|-----------------------|
-------------------|-------------------------|-----------------------|
-------------------|---------------4S--5--2--|--2--------------------|
-------------------|---------------2S--3--0--|--0--------------------|


  H        Q     Q       W                   W                 
----------------------|-------------------|-------------------|
----------------------|-------------------|-------------------|
----------------------|-------------------|-------------------|
-----------9----10----|-------------------|-------------------|
-----------9----10----|-------------------|-------------------|
-----------7-----8----|-------------------|-------------------|


  |--3-|  |---3--|  |---3--|  |---3--|   
  Q    E  E   E  E  E   E  E  E   E  E   
----------------------------------------|
----------------------------------------|
----------------------------------------|
----------------------------------------|
----------------------------------------|
--0----0--7p--0--0--8p--0--0--7p--0--0--|


                             PM        PM  
  |---3--|  |---3--|  |---3--|  |---3--|   
  E   E  E  E   E  E  E   E  E  E   E  E   
------------------------------------------|
------------------------------------------|
------------------------------------------|
------------------------------------------|
----------------------4S--5-----4S--5-----|
--5p--0--0--3p--0--0--2S--3--0--2S--3--0--|


  |--3-|  |---3--|  |---3--|  |---3--|   
  Q    E  E   E  E  E   E  E  E   E  E   
----------------------------------------|
----------------------------------------|
----------------------------------------|
----------------------------------------|
----------------------------------------|
--0----0--7p--0--0--8p--0--0--7p--0--0--|


                             PM        PM  
  |---3--|  |---3--|  |---3--|  |---3--|   
  E   E  E  E   E  E  E   E  E  E   E  E   
------------------------------------------|
------------------------------------------|
------------------------------------------|
------------------------------------------|
----------------------4S--5-----4S--5-----|
--5p--0--0--3p--0--0--2S--3--0--2S--3--0--|


  |--3-|  |---3--|  |---3--|  |---3--|   
  Q    E  E   E  E  E   E  E  E   E  E   
----------------------------------------|
----------------------------------------|
----------------------------------------|
----------------------------------------|
----------------------------------------|
--0----0--7p--0--0--8p--0--0--7p--0--0--|


                             PM        PM  
  |---3--|  |---3--|  |---3--|  |---3--|   
  E   E  E  E   E  E  E   E  E  E   E  E   
------------------------------------------|
------------------------------------------|
------------------------------------------|
------------------------------------------|
----------------------4S--5-----4S--5-----|
--5p--0--0--3p--0--0--2S--3--0--2S--3--0--|


  |--3-|  |---3--|  |---3--|  |---3--|   
  Q    E  E   E  E  E   E  E  E   E  E   
----------------------------------------|
----------------------------------------|
----------------------------------------|
----------------------------------------|
----------------------------------------|
--0----0--7p--0--0--8p--0--0--7p--0--0--|


                             PM        PM                       
  |---3--|  |---3--|  |---3--|  |---3--|                        
  E   E  E  E   E  E  E   E  E  E   E  E     H        H         
------------------------------------------|--------------------|
------------------------------------------|--------------------|
------------------------------------------|--------------------|
------------------------------------------|--2--------2--------|
----------------------4S--5-----4S--5-----|--2--------2--------|
--5p--0--0--3p--0--0--2S--3--0--2S--3--0--|--0--------0--------|


  H        H           Q    H           H.              H.            
--------------------|----------------|---------------|---------------|
--------------------|----------------|---------------|---------------|
--------------------|----------------|---------------|---------------|
--2--------2--------|--2-------------|---------------|---------------|
--2--------2--------|--2-------------|---------------|---------------|
--0--------0--------|--0-------------|---------------|---------------|


  H.              H.              H.              H.              H.            
---------------|---------------|---------------|---------------|---------------|
---------------|---------------|---------------|---------------|---------------|
---------------|---------------|---------------|---------------|---------------|
---------------|---------------|---------------|---------------|--2------------|
---------------|---------------|---------------|---------------|--2------------|
---------------|---------------|---------------|---------------|--0------------|


  E  E  H           H.              E  E  H           E  S S E  E  S S E   
-----------------|---------------|-----------------|----------------------|
-----------------|---------------|-----------------|----------------------|
-----------------|--5------------|-----------------|--9--9-9-9--9--9-9-9--|
--2--------------|--5------------|--5--------------|----------------------|
--2--------------|--3------------|--5--------------|--7--7-7-7--7--7-7-7--|
--0--------------|---------------|--3--------------|----------------------|


  E  S S E  E  S S E     E  S S E  E  S S E     E  S S E  Q.      
----------------------|----------------------|-------------------|
----------------------|----------------------|-------------------|
--9--9-9-9--9--9-9-9--|--5--5-5-5--5--5-5-5--|--5--5-5-5---------|
----------------------|----------------------|------------1------|
--7--7-7-7--7--7-7-7--|--3--3-3-3--3--3-3-3--|--3--3-3-3--2------|
----------------------|----------------------|------------0------|


  E  E  E  E  E  E     E  E  E  E  E  E     E  E  E  E  E  E   
--------------------|--------------------|--------------------|
--------------------|--------------------|--------------------|
--------------------|--------------------|--7--7--7--7--7--7--|
--2--2--2--2--2--2--|--5--5--5--5--5--5--|--7--7--7--7--7--7--|
--2--2--2--2--2--2--|--5--5--5--5--5--5--|--5--5--5--5--5--5--|
--0--0--0--0--0--0--|--3--3--3--3--3--3--|--------------------|


  E  E  E  E  E  E     E  E  E  E  E  E     E  E  E  E  E  E   
--------------------|--------------------|--------------------|
--------------------|--------------------|--------------------|
--------------------|--------------------|--------------------|
--7--7--7--7--7--7--|--2--2--2--2--2--2--|--5--5--5--5--5--5--|
--7--7--7--7--7--7--|--2--2--2--2--2--2--|--5--5--5--5--5--5--|
--5--5--5--5--5--5--|--0--0--0--0--0--0--|--3--3--3--3--3--3--|


  E  E  E  E  E  E     E  E  E  E  E  E     E  E  E  E  E  E   
--------------------|--------------------|--------------------|
--------------------|--------------------|--------------------|
--7--7--7--7--7--7--|--4--4--4--7--7--7--|--------------------|
--7--7--7--7--7--7--|--------------------|--2--2--2--2--2--2--|
--5--5--5--5--5--5--|--2--2--2--5--5--5--|--2--2--2--2--2--2--|
--------------------|--------------------|--0--0--0--0--0--0--|


  E  E  E  E  E  E     E  E  E  E  E  E     E  E  E  E  E  E   
--------------------|--------------------|--------------------|
--------------------|--------------------|--------------------|
--------------------|--7--7--7--7--7--7--|--------------------|
--5--5--5--5--5--5--|--7--7--7--7--7--7--|--7--7--7--7--7--7--|
--5--5--5--5--5--5--|--5--5--5--5--5--5--|--7--7--7--7--7--7--|
--3--3--3--3--3--3--|--------------------|--5--5--5--5--5--5--|


  E  E  E  E  E  E     E  E  E  E  E  E     E  E  E  E  E  E   
--------------------|--------------------|--------------------|
--------------------|--------------------|--------------------|
--------------------|--------------------|--7--7--7--7--7--7--|
--2--2--2--2--2--2--|--5--5--5--5--5--5--|--7--7--7--7--7--7--|
--2--2--2--2--2--2--|--5--5--5--5--5--5--|--5--5--5--5--5--5--|
--0--0--0--0--0--0--|--3--3--3--3--3--3--|--------------------|


                       |--3-|  |---3--|  |---3--|  |---3--|   
  E  E  E  E  E  E     Q    E  E   E  E  E   E  E  E   E  E   
--------------------|----------------------------------------|
--------------------|----------------------------------------|
--4--4--4--7--7--7--|----------------------------------------|
--------------------|----------------------------------------|
--2--2--2--5--5--5--|----------------------------------------|
--------------------|--0----0--7p--0--0--8p--0--0--7p--0--0--|


                             PM        PM  
  |---3--|  |---3--|  |---3--|  |---3--|   
  E   E  E  E   E  E  E   E  E  E   E  E   
------------------------------------------|
------------------------------------------|
------------------------------------------|
------------------------------------------|
----------------------4S--5-----4S--5-----|
--5p--0--0--3p--0--0--2S--3--0--2S--3--0--|


  |--3-|  |---3--|  |---3--|  |---3--|   
  Q    E  E   E  E  E   E  E  E   E  E   
----------------------------------------|
----------------------------------------|
----------------------------------------|
----------------------------------------|
----------------------------------------|
--0----0--7p--0--0--8p--0--0--7p--0--0--|


                             PM        PM                       
  |---3--|  |---3--|  |---3--|  |---3--|                        
  E   E  E  E   E  E  E   E  E  E   E  E     H        H         
------------------------------------------|--------------------|
------------------------------------------|--------------------|
------------------------------------------|--------------------|
------------------------------------------|--2--------2--------|
----------------------4S--5-----4S--5-----|--2--------2--------|
--5p--0--0--3p--0--0--2S--3--0--2S--3--0--|--0--------0--------|


  Q    H           H.              H.              H.            
----------------|---------------|---------------|---------------|
----------------|---------------|---------------|---------------|
----------------|---------------|---------------|---------------|
--2-------------|---------------|---------------|---------------|
--2-------------|---------------|---------------|---------------|
--0-------------|---------------|---------------|---------------|


  H.              H.              H.              H.            
---------------|---------------|---------------|---------------|
---------------|---------------|---------------|---------------|
---------------|---------------|---------------|---------------|
---------------|---------------|---------------|--2------------|
---------------|---------------|---------------|--2------------|
---------------|---------------|---------------|--0------------|


  E  E  H           H.              E  E  H           E  S S E  E  S S E   
-----------------|---------------|-----------------|----------------------|
-----------------|---------------|-----------------|----------------------|
-----------------|--5------------|-----------------|--9--9-9-9--9--9-9-9--|
--2--------------|--5------------|--5--------------|----------------------|
--2--------------|--3------------|--5--------------|--7--7-7-7--7--7-7-7--|
--0--------------|---------------|--3--------------|----------------------|


  E  S S E  E  S S E     E  S S E  E  S S E     E  S S E  Q.      
----------------------|----------------------|-------------------|
----------------------|----------------------|-------------------|
--9--9-9-9--9--9-9-9--|--5--5-5-5--5--5-5-5--|--5--5-5-5---------|
----------------------|----------------------|------------1------|
--7--7-7-7--7--7-7-7--|--3--3-3-3--3--3-3-3--|--3--3-3-3--2------|
----------------------|----------------------|------------0------|


  E  E  E  E  E  E     E  E  E  E  E  E     E  E  E  E  E  E   
--------------------|--------------------|--------------------|
--------------------|--------------------|--------------------|
--------------------|--------------------|--7--7--7--7--7--7--|
--2--2--2--2--2--2--|--5--5--5--5--5--5--|--7--7--7--7--7--7--|
--2--2--2--2--2--2--|--5--5--5--5--5--5--|--5--5--5--5--5--5--|
--0--0--0--0--0--0--|--3--3--3--3--3--3--|--------------------|


  E  E  E  E  E  E     E  E  E  E  E  E     E  E  E  E  E  E   
--------------------|--------------------|--------------------|
--------------------|--------------------|--------------------|
--------------------|--------------------|--------------------|
--7--7--7--7--7--7--|--2--2--2--2--2--2--|--5--5--5--5--5--5--|
--7--7--7--7--7--7--|--2--2--2--2--2--2--|--5--5--5--5--5--5--|
--5--5--5--5--5--5--|--0--0--0--0--0--0--|--3--3--3--3--3--3--|


  E  E  E  E  E  E     E  E  E  E  E  E     E  E  E  E  E  E   
--------------------|--------------------|--------------------|
--------------------|--------------------|--------------------|
--7--7--7--7--7--7--|--4--4--4--7--7--7--|--------------------|
--7--7--7--7--7--7--|--------------------|--2--2--2--2--2--2--|
--5--5--5--5--5--5--|--2--2--2--5--5--5--|--2--2--2--2--2--2--|
--------------------|--------------------|--0--0--0--0--0--0--|


  E  E  E  E  E  E     E  E  E  E  E  E     E  E  E  E  E  E   
--------------------|--------------------|--------------------|
--------------------|--------------------|--------------------|
--------------------|--7--7--7--7--7--7--|--------------------|
--5--5--5--5--5--5--|--7--7--7--7--7--7--|--7--7--7--7--7--7--|
--5--5--5--5--5--5--|--5--5--5--5--5--5--|--7--7--7--7--7--7--|
--3--3--3--3--3--3--|--------------------|--5--5--5--5--5--5--|


  E  E  E  E  E  E     E  E  E  E  E  E     E  E  E  E  E  E   
--------------------|--------------------|--------------------|
--------------------|--------------------|--------------------|
--------------------|--------------------|--7--7--7--7--7--7--|
--2--2--2--2--2--2--|--5--5--5--5--5--5--|--7--7--7--7--7--7--|
--2--2--2--2--2--2--|--5--5--5--5--5--5--|--5--5--5--5--5--5--|
--0--0--0--0--0--0--|--3--3--3--3--3--3--|--------------------|


  E  E  E  E   E   E     W                   W                 
----------------------|-------------------|-------------------|
----------------------|-------------------|-------------------|
--8--8--8--9--11--11--|-------------------|-------------------|
----------------------|-------------------|-------------------|
--6--6--6--7---9---9--|-------------------|-------------------|
----------------------|-------------------|-------------------|


  W                   W                   E  E  E  E  E  E  E  E   
-------------------|-------------------|--------------------------|
-------------------|-------------------|--x--x--x--x--x--x--x--x--|
-------------------|-------------------|--x--x--x--x--x--x--x--x--|
-------------------|-------------------|--x--x--x--x--x--x--x--x--|
-------------------|-------------------|--x--x--x--x--x--x--x--x--|
-------------------|-------------------|--------------------------|


  E  E  E  E  E  E  E  E     E  E  E  E  E  E  E  E   
--------------------------|--------------------------|
--x--x--x--x--x--x--x--x--|--x--x--x--x--x--x--x--x--|
--x--x--x--x--x--x--x--x--|--x--x--x--x--x--x--x--x--|
--x--x--x--x--x--x--x--x--|--x--x--x--x--x--x--x--x--|
--x--x--x--x--x--x--x--x--|--x--x--x--x--x--x--x--x--|
--------------------------|--------------------------|


  E  E  E  E  E  E  E  E     E  E  E  E  E  E  E  E   
--------------------------|--------------------------|
--x--x--x--x--x--x--x--x--|--x--x--x--x--x--x--x--x--|
--x--x--x--x--x--x--x--x--|--x--x--x--x--x--x--x--x--|
--x--x--x--x--x--x--x--x--|--x--x--x--x--x--x--x--x--|
--x--x--x--x--x--x--x--x--|--x--x--x--x--x--x--x--x--|
--------------------------|--------------------------|


  E  E  E  E  E  E  E  E     E  E  E  E  E  E  E  E     E  E  E  E  E  E  Q     
--------------------------|--------------------------|-------------------------|
--x--x--x--x--x--x--x--x--|--x--x--x--x--x--x--x--x--|--x--x--x--x--x--x-------|
--x--x--x--x--x--x--x--x--|--x--x--x--x--x--x--x--x--|--x--x--x--x--x--x-------|
--x--x--x--x--x--x--x--x--|--x--x--x--x--x--x--x--x--|--x--x--x--x--x--x-------|
--x--x--x--x--x--x--x--x--|--x--x--x--x--x--x--x--x--|--x--x--x--x--x--x-------|
--------------------------|--------------------------|-------------------------|


  PM PM PM    PM PM PM PM    PM PM    PM PM    PM PM  
  E  E  E  E  E  E  E  E     E  E  E  E  E  E  E  E   
--------------------------|--------------------------|
--------------------------|--------------------------|
--------------------------|--------------------------|
--2--1--2--4--------------|-----------------------1--|
--------------------------|--------2--------2--------|
--------------3--0--2--3--|--0--2-----0--2-----0-----|


  PM PM PM    PM PM PM PM    PM PM    PM PM    PM PM  
  E  E  E  E  E  E  E  E     E  E  E  E  E  E  E  E   
--------------------------|--------------------------|
--------------------------|--------------------------|
--------------------------|--------------------------|
--2--1--2--4--------------|-----------------------1--|
--------------------------|--------2--------2--------|
--------------3--0--2--3--|--0--2-----0--2-----0-----|


  PM PM PM    PM PM PM PM    PM PM    PM PM    PM PM  
  E  E  E  E  E  E  E  E     E  E  E  E  E  E  E  E   
--------------------------|--------------------------|
--------------------------|--------------------------|
--------------------------|--------------------------|
--2--1--2--4--------------|-----------------------1--|
--------------------------|--------2--------2--------|
--------------3--0--2--3--|--0--2-----0--2-----0-----|


  PM PM PM    PM PM PM PM    PM PM    PM PM    PM PM  
  E  E  E  E  E  E  E  E     E  E  E  E  E  E  E  E   
--------------------------|--------------------------|
--------------------------|--------------------------|
--------------------------|--------------------------|
--2--1--2--4--------------|-----------------------1--|
--------------------------|--------2--------2--------|
--------------3--0--2--3--|--0--2-----0--2-----0-----|


  E  S S E  S S E  S S E  S S    E  S S E  S S E  S S E  S S  
------------------------------|------------------------------|
------------------------------|------------------------------|
--9--x-x-9--x-x-8--x-x-8--x-x-|--8--x-x-8--x-x-9--x-x-9--x-x-|
--x--x-x-x--x-x-x--x-x-x--x-x-|--x--x-x-x--x-x-x--x-x-x--x-x-|
--7--x-x-7--x-x-6--x-x-6--x-x-|--6--x-x-6--x-x-7--x-x-7--x-x-|
------------------------------|------------------------------|


  E  S S E  S S E  S S E  S S    E  S S E  S S E  E  E  E   
------------------------------|----------------------------|
------------------------------|----------------x--x--x--x--|
--9--x-x-9--x-x-8--x-x-8--x-x-|--8--x-x-8--x-x-x--x--x--x--|
--x--x-x-x--x-x-x--x-x-x--x-x-|--x--x-x-x--x-x-x--x--x--x--|
--7--x-x-7--x-x-6--x-x-6--x-x-|--6--x-x-6--x-x-x--x--x--x--|
------------------------------|----------------------------|


  E  E  E  E  E  E  E  E     E  E  E  E  E  E  E  E   
--------------------------|--------------------------|
--------------------------|--------------------------|
--------------------------|--------------------------|
--------------------------|--------------------------|
--------------------------|--------------------------|
--0--0--0--3--3--3--2--2--|--2--3--3--3--5--5--5--5--|


  E  E  E  E  E  E  E  E     E  E  E  E  E  E  E  E   
--------------------------|--------------------------|
--------------------------|--------------x--x--x--x--|
--------------------------|--------------x--x--x--x--|
--------------------------|--------------x--x--x--x--|
--------------------------|--------------x--x--x--x--|
--0--0--0--3--3--3--2--2--|--2--3--3--3--------------|


  E  E  E  E  E  E  E  E     E  E  E  E  E  E  E  E   
--------------------------|--------------------------|
--------------------------|--------------------------|
--------------------------|--------------------------|
--------------------------|--------------------------|
--------------------------|--------------------------|
--0--0--0--3--3--3--2--2--|--2--3--3--3--5--5--5--5--|


  E  E  E  E  E  E  E  E     E  E  E  E  E  E  E  E     W                 
--------------------------|--------------------------|-------------------|
--------------------------|--x--x--x--x--x--x--x--x--|-------------------|
--------------------------|--x--x--x--x--x--x--x--x--|-------------------|
--------------------------|--x--x--x--x--x--x--x--x--|--2----------------|
--------------------------|--x--x--x--x--x--x--x--x--|--2----------------|
--0--0--0--3--3--3--2--2--|--------------------------|--0----------------|


  W                   W                   H.              E  E  E  E  E  E   
-------------------|-------------------|---------------|--------------------|
-------------------|-------------------|---------------|--------------------|
-------------------|-------------------|---------------|--------------------|
--L----------------|--L----------------|--L------------|--2--2--2--2--2--2--|
--L----------------|--L----------------|--L------------|--2--2--2--2--2--2--|
--L----------------|--L----------------|--L------------|--0--0--0--0--0--0--|


  E  E  E  E  E  E     E  E  E  E  E  E     E  E  E  E  E  E   
--------------------|--------------------|--------------------|
--------------------|--------------------|--------------------|
--------------------|--7--7--7--7--7--7--|--------------------|
--5--5--5--5--5--5--|--7--7--7--7--7--7--|--7--7--7--7--7--7--|
--5--5--5--5--5--5--|--5--5--5--5--5--5--|--7--7--7--7--7--7--|
--3--3--3--3--3--3--|--------------------|--5--5--5--5--5--5--|


  E  E  E  E  E  E     E  E  E  E  E  E     E  E  E  E  E  E   
--------------------|--------------------|--------------------|
--------------------|--------------------|--------------------|
--------------------|--------------------|--7--7--7--7--7--7--|
--2--2--2--2--2--2--|--5--5--5--5--5--5--|--7--7--7--7--7--7--|
--2--2--2--2--2--2--|--5--5--5--5--5--5--|--5--5--5--5--5--5--|
--0--0--0--0--0--0--|--3--3--3--3--3--3--|--------------------|


  E  E  E  E  E  E     E  E  E  E  E  E     E  E  E  E  E  E   
--------------------|--------------------|--------------------|
--------------------|--------------------|--------------------|
--4--4--4--7--7--7--|--------------------|--------------------|
--------------------|--2--2--2--2--2--2--|--5--5--5--5--5--5--|
--2--2--2--5--5--5--|--2--2--2--2--2--2--|--5--5--5--5--5--5--|
--------------------|--0--0--0--0--0--0--|--3--3--3--3--3--3--|


  E  E  E  E  E  E     E  E  E  E  E  E     E  E  E  E  E  E   
--------------------|--------------------|--------------------|
--------------------|--------------------|--------------------|
--7--7--7--7--7--7--|--------------------|--------------------|
--7--7--7--7--7--7--|--7--7--7--7--7--7--|--2--2--2--2--2--2--|
--5--5--5--5--5--5--|--7--7--7--7--7--7--|--2--2--2--2--2--2--|
--------------------|--5--5--5--5--5--5--|--0--0--0--0--0--0--|


  E  E  E  E  E  E     E  E  E  E  E  E     E  E  E  E   E   E   
--------------------|--------------------|----------------------|
--------------------|--------------------|----------------------|
--------------------|--7--7--7--7--7--7--|--8--8--8--9--11--11--|
--5--5--5--5--5--5--|--7--7--7--7--7--7--|----------------------|
--5--5--5--5--5--5--|--5--5--5--5--5--5--|--6--6--6--7---9---9--|
--3--3--3--3--3--3--|--------------------|----------------------|


  H.             
---------------||
---------------||
---------------||
---------------||
---------------||
---------------||




Duration Legend
---------------
W - whole
H - half
Q - quarter
E - 8th
S - 16th
T - 32nd
X - 64th
. - note dotted
|-n-|  - n-tuplets


Tablature Legend
----------------
L - tied note
x - dead note
g - grace note
(n) - ghost note
> - accentuded note
NH - natural harmonic
AH - artificial harmonic
TH - tapped harmonic
SH - semi harmonic
PH - pitch harmonic
h - hammer on
p - pull off
b - bend
br - bendRelease
pb - preBend
pbr - preBendRelease
brb - bendReleaseBend
\n/ - tremolo bar dip
\n - tremolo bar dive
-/n - tremolo bar Release up
/n\ - tremolo bar inverted dip
/n - tremolo bar return
-\n - tremolo bar Release down
S - shift slide
s - legato slide
/ -  slide into from below or out of upwards
\ -  slide into from above or out of downwards
~ - vibrato
W - wide vibrato
tr - trill
TP - tremolo picking
T - tapping
S - slap
P - pop
< - fade in
^ - brush up
v - brush down


Tap to rate this tab
 
# A B C D E F G H I J K L M N O P Q R S T U V W X Y Z