Sum 41 - Blood In My Eyes tab

Intro (Clean Tone):

e------0------0------0------0------0------0------0------0-|
B--8-8----8-8----7-7----7-7----4-4----4-4----5-5----5-5---|
G---------------------------------------------------------|  X3
D---------------------------------------------------------|
A---------------------------------------------------------|
E---------------------------------------------------------|


e------0------0------0------0------0------0--0-|
B--8-8----8-8----7-7----7-7----4-4----4-4----5-|
G----------------------------------------------|  
D----------------------------------------------|
A----------------------------------------------|
E----------------------------------------------|

Intro Pt 2 (Distorted):


e----------------------------------------------|
B----------------------------------------------|
G--9-9-9-9--9-9-9-9--9-9-9-9-9-----------------|  
D--x-x-x-x--x-x-x-x--x-x-x-x-x--9-10-----------|
A--7-7-7-7--7-7-7-7--7-7-7-7-7--9-10-----------|
E-------------------------------7-8------------|

e---------------------------------------------|
B---------------------------------------------|
G--9-9-9-9--9-9-9-9---------------------------|  
D--x-x-x-x--x-x-x-x---------------------------|
A--7-7-7-7--7-7-7-7---------------------------|
E--------------------7-0-0-5-0-0-3-0-0-2-3-3--|

e----------------------------------------------|
B----------------------------------------------|
G--9-9-9-9--9-9-9-9--9-9-9-9-9-----------------|  
D--x-x-x-x--x-x-x-x--x-x-x-x-x--9-10-----------|
A--7-7-7-7--7-7-7-7--7-7-7-7-7--9-10-----------|
E-------------------------------7-8------------|

e-----------------------------------------|
B-----------------------------------------|
G--9-9-9-9--9-9-9-9-----------------------|  
D--x-x-x-x--x-x-x-x-----------------------|
A--7-7-7-7--7-7-7-7-----------------------|
E--------------------7-0-0-5-0-0-3-0-0-2--|

Intro Pt 2 Cont:

e---------------------------------------------------|
B---------------------------------------------------|
G---------------------------------------------------|
D---------------------------------------------------|  X4
A---------------------------------------------------|
E--0-0-0-7-0-0-8-0-0-7-0-0-5-0-0-3-0-0-2-3-3-2-3-3--|

e------------------|
B------------------|
G------------------|
D--2~--2~--2~--2~--|
A--2~--2~--2~--2~--|
E--0~--0~--0~--0~--|

Verse (Clean Tone):

e------------------------------------------------------|
B--------8------------8--------------------------------|
G------9---9--------9---9----------8------------8------|
D----9-------9----9-------9------9---9--------9---9----|
A--7------------7--------------9-------9----9-------9--|
E----------------------------7------------7------------|

e---------------------------------------------|
B--------------------------------------4------|
G----------9--------------4----------4---4----|
D-------10---10---------5---5------4-------4--|
A----10---------10----5-------5--2------------|
E--8----------------3-------------------------|

Pre-Chorus (Distorted):

e-----------------------|
B-----------------------|
G-------------5~--------|
D--2~----2----5~----5~--|
A--2~----2----3~----5~--|
E--0~----0----------3~--|

e--------------------------------------------------------------------|
B--------------------------------------------------------------------|
G--9-9-9-9-9-9-9-9-9-9-9-9-9-9-9-9--5-5-5-5-5-5-5-5-5-5-5-5-5-5-5-5--|
D--x-x-x-x-x-x-x-x-x-x-x-x-x-x-x-x--x-x-x-x-x-x-x-x-x-x-x-x-x-x-x-x--|
A--7-7-7-7-7-7-7-7-7-7-7-7-7-7-7-7--3-3-3-3-3-3-3-3-3-3-3-3-3-3-3-3--|
E--------------------------------------------------------------------|

Chorus:

e------------------------------------------------------------------------|
B------------------------------------------------------------------------|
G--------------------------------------7-7-7-7-7-7-7-7-------------------|
D--2-2-2-2-2-2-2-2--5-5-5-5-5-5-5-5-5--7-7-7-7-7-7-7-7--7-7-7-7-7-7-7-7--|
A--2-2-2-2-2-2-2-2--5-5-5-5-5-5-5-5-5--5-5-5-5-5-5-5-5--7-7-7-7-7-7-7-7--|
E--0-0-0-0-0-0-0-0--3-3-3-3-3-3-3-3-3-------------------5-5-5-5-5-5-5-5--|
                                                                          
e------------------------------------------------------------------------|
B------------------------------------------------------------------------|
G--------------------------------------7-7-7-7-7-7-7-7--4-4-4-4--7-7-7-7-|
D--2-2-2-2-2-2-2-2--5-5-5-5-5-5-5-5-5--7-7-7-7-7-7-7-7--x-x-x-x--x-x-x-x-|
A--2-2-2-2-2-2-2-2--5-5-5-5-5-5-5-5-5--5-5-5-5-5-5-5-5--2-2-2-2--5-5-5-5-|
E--0-0-0-0-0-0-0-0--3-3-3-3-3-3-3-3-3------------------------------------|

e------------------------------------------------------------------------|
B------------------------------------------------------------------------|
G--------------------------------------7-7-7-7-7-7-7-7-------------------|
D--2-2-2-2-2-2-2-2--5-5-5-5-5-5-5-5-5--7-7-7-7-7-7-7-7--7-7-7-7-7-7-7-7--|
A--2-2-2-2-2-2-2-2--5-5-5-5-5-5-5-5-5--5-5-5-5-5-5-5-5--7-7-7-7-7-7-7-7--|
E--0-0-0-0-0-0-0-0--3-3-3-3-3-3-3-3-3-------------------5-5-5-5-5-5-5-5--|

e------------------------------------------------------------------------|
B------------------------------------------------------------------------|
G--------------------------------------7-7-7-7-7-7-7-7--4-4-4-4--7-7-7-7-|
D--2-2-2-2-2-2-2-2--5-5-5-5-5-5-5-5-5--7-7-7-7-7-7-7-7--x-x-x-x--x-x-x-x-|
A--2-2-2-2-2-2-2-2--5-5-5-5-5-5-5-5-5--5-5-5-5-5-5-5-5--2-2-2-2--5-5-5-5-|
E--0-0-0-0-0-0-0-0--3-3-3-3-3-3-3-3-3------------------------------------|


Repeat:
Intro Pt 2 Cont
Verse
Pre-Chorus

Chorus 2:

e------------------------------------------------------------------------|
B------------------------------------------------------------------------|
G--------------------------------------7-7-7-7-7-7-7-7-------------------|
D--2-2-2-2-2-2-2-2--5-5-5-5-5-5-5-5-5--7-7-7-7-7-7-7-7--7-7-7-7-7-7-7-7--|
A--2-2-2-2-2-2-2-2--5-5-5-5-5-5-5-5-5--5-5-5-5-5-5-5-5--7-7-7-7-7-7-7-7--|
E--0-0-0-0-0-0-0-0--3-3-3-3-3-3-3-3-3-------------------5-5-5-5-5-5-5-5--|

e------------------------------------------------------------------------|
B------------------------------------------------------------------------|
G--------------------------------------7-7-7-7-7-7-7-7--4-4-4-4--7-7-7-7-|
D--2-2-2-2-2-2-2-2--5-5-5-5-5-5-5-5-5--7-7-7-7-7-7-7-7--x-x-x-x--x-x-x-x-|
A--2-2-2-2-2-2-2-2--5-5-5-5-5-5-5-5-5--5-5-5-5-5-5-5-5--2-2-2-2--5-5-5-5-|
E--0-0-0-0-0-0-0-0--3-3-3-3-3-3-3-3-3------------------------------------|

e------------------------------------------------------------------------|
B------------------------------------------------------------------------|
G--------------------------------------7-7-7-7-7-7-7-7--4-4-4-4--7-7-7-7-|
D--2-2-2-2-2-2-2-2--5-5-5-5-5-5-5-5-5--7-7-7-7-7-7-7-7--x-x-x-x--x-x-x-x-|
A--2-2-2-2-2-2-2-2--5-5-5-5-5-5-5-5-5--5-5-5-5-5-5-5-5--2-2-2-2--5-5-5-5-|
E--0-0-0-0-0-0-0-0--3-3-3-3-3-3-3-3-3------------------------------------|

e--------------------------------------------------------------------------|
B--------------------------------------------------------------------------|
G--------------------------------------7-7-7-7-7-7-7-7--4-4--7--11-11-11---|
D--2-2-2-2-2-2-2-2--5-5-5-5-5-5-5-5-5--7-7-7-7-7-7-7-7--x-x--x--x--x--x--2~|
A--2-2-2-2-2-2-2-2--5-5-5-5-5-5-5-5-5--5-5-5-5-5-5-5-5--2-2--5--9--9--9--2~|
E--0-0-0-0-0-0-0-0--3-3-3-3-3-3-3-3-3------------------------------------0~|

Bridge:

Intro Pt 1 X1

Then:

e--x-x-x-x-x-x-x-x-x-x-x-x-x-x-x-x--|
B--x-x-x-x-x-x-x-x-x-x-x-x-x-x-x-x--|
G--x-x-x-x-x-x-x-x-x-x-x-x-x-x-x-x--|
D--x-x-x-x-x-x-x-x-x-x-x-x-x-x-x-x--|
A--x-x-x-x-x-x-x-x-x-x-x-x-x-x-x-x--|
E--x-x-x-x-x-x-x-x-x-x-x-x-x-x-x-x--|

e------------------------------|
B------------------------------|
G------------------------------|
D--1-1-2-4---------------------| X2
A---------------------2-----2--|
E-----------2-3-2-3-2---2-3----|

e------------------------------------------|
B------------------------------------------|
G--9-9-9-9--8-8-8-8--11-11-11-11--9-9-9-9--|
D--x-x-x-x--x-x-x-x--x--x--x--x---x-x-x-x--|
A--7-7-7-7--6-6-6-6--9--9--9--9---7-7-7-7--|
E------------------------------------------|

e----------------------------------------------|
B----------------------------------------------|
G--9-9-9-9--8-8-8-8--11-11-11-11--12-12-12-12--|
D--x-x-x-x--x-x-x-x--x--x--x--x---x--x--x--x---|
A--7-7-7-7--6-6-6-6--9--9--9--9---10-10-10-10--|
E----------------------------------------------|

Bridge Pt 2:

e-------------------------------------|
B-------------------------------------|
G-------------------------------------|
D-------------------------------------| X2
A-------------------------------------|
E--0-0-0--3-3-3--2-2-2--3-3--5-5-5-5--|

e-------------------------------------|
B-------------------------------------|
G-------------------------------------|
D-------------------------------------|
A-------------------------------------|
E--0-0-0--3-3-3--2-2-2--3-3--5-5-5-5--|

e-------------------------------------|
B-------------------------------------|
G-------------------------------------|
D----------------------------x-x-x-x--|
A----------------------------x-x-x-x--|
E--0-0-0--3-3-3--2-2-2--3-3--x-x-x-x--|

e-------------------------------------|
B-------------------------------------|
G-------------------------------------|
D-------------------------------------|
A-------------------------------------|
E--0-0-0--3-3-3--2-2-2--3-3--5-5-5-5--|

e----------------------------------------|
B----------------------------------------|
G----------------------------------------|
D-----------------------x-x-x-x-x-x--2~--|
A-----------------------x-x-x-x-x-x--2~--|
E--0-0-0--3-3-3--2-2-2--x-x-x-x-x-x--0~--|

Repeat Chorus 2

And so that's it!
Hope You Like it. If you need some help with strum patterns etc, check out this video:  
http://www.youtube.com/watch?v=KQr87NHZma4
Thanks!
Tap to rate this tab
 
# A B C D E F G H I J K L M N O P Q R S T U V W X Y Z