Sum 41 - In Too Deep tab

Tuning: Standard (EADGBe)

| .  palm-mute
| /  slide up
| \  slide down
| ^  bend (general)
| b  bend (to specific note)
| r  return bend (to specific note)
| h  hammer-on
| p  pull-off
| ~  let ring

This is the first comprehensive (and correct) tab of this song. It took me a long 
time to tab out all the way, please rate! Enjoy. :)

[Intro]
  {Gtr 1
e|-----------------------------------|
B|-----------------------------------|
G|---------9---13--------------------|
D|--99-9-9---9----9--99-9-9-7-6-7-9--|
A|-----------------------------------|
E|-----------------------------------|
    .................................
  {Gtr 2 - Note which notes are palm muted and which ones are not.
e|-----------------------------------|
B|-----------------------------------|
G|-----------------------------------|
D|----2----66-7-9-7-------------4-6--|
A|-------------------00-0-0-6-7------|
E|--0----0---------------------------|
    .    ......      ............

  {Gtr 1
e|-----------------------------------|
B|-----------------------------------|
G|---------9---13--------------------|
D|--99-9-9---9----9--99-9-9-7-6------|
A|------------------------------9-7--|
E|-----------------------------------|
    .................................
  {Gtr 2
e|-----------------------------------|
B|-----------------------------------|
G|-----------------------------------|
D|----2----66-7-9-7-------------4-6--|
A|-------------------00-0-0-6-7------|
E|--0----0---------------------------|
    .    ......      .............


[Verse 1] Carry the intro riffs into the verse until this:
  {Gtr 1 - Left ear
e|---------------------------------------------------|
B|--9---9--9---10--10-10--9---9--9-------------------|
G|--9---9--9---9---9--9---9---9--9-------------------|
D|--6---6--6---7---7--7---6---6--6--7-7-7-7-7-7-7-7--|
A|----------------------------------7-7-7-7-7-7-7-7--|
E|----------------------------------5-5-5-5-5-5-5-5--|
                                    .......
  {Gtr 2 - Right ear
e|----------------------------------|
B|--9---9--9--------------9---9--9--|
G|--9---9--9---9---9--9---9---9--9--|
D|--6---6--6---7---7--7---6---6--6--|
A|-------------7---7--7-------------|
E|----------------------------------|
             
                      
[Chorus 1]
  {Gtr 1
e|--------------------------------|
B|--------------------------------|
G|---------22-2-2---------22-2-2--|
D|--2-2-2--22-2-2--2-2-2--22-2-2--|
A|--2-2-2--00-0-0--2-2-2--00-0-0--|
E|--0-0-0----------0-0-0----------|

  {Gtr 1
e|------------------------------|
B|------------------------------|
G|---------22-2-2---------22-2--|
D|--2-2-2--22-2-2--2-2-2--22-2--|
A|--2-2-2--00-0-0--2-2-2--00-0--|
E|--0-0-0----------0-0-0--------|

  {Gtr 1
e|--------------------------------|
B|--------------------------------|
G|---------22-2-2---------22-2-2--|
D|--2-2-2--22-2-2--2-2-2--22-2-2--|
A|--2-2-2--00-0-0--2-2-2--00-0-0--|
E|--0-0-0----------0-0-0----------|

  {Gtr 1
e|------------------------------------------------------------|
B|------------------------------------------------------------|
G|---------22-2-2-22---------7-7-7-7--------------------------|
D|--2-2-2--22-2-2-22-9-9-9-9-7-7-7-7-7-7-7-7-x-x-x-x-x-x-x-x--|
A|--2-2-2--00-0-0-00-7-7-7-7-5-5-5-5-7-7-7-7-x-x-x-x-x-x-x-x--|
E|--0-0-0------------0-0-0-0---------5-5-5-5-x-x-x-x-x-x-x-x--|


[Post-Chorus]
  {Gtr 1
e|-------------------------------------|
B|-------------------------------------|
G|-------------------------------------|
D|--2-2----77-7-6-7--2-2-----77-6-4-6--|
A|--2-2----77-7-6-7--2-2-----77-6-4-6--|
E|--0-0----55-5-4-5--0-0-----55-4-2-4--|
  {Gtr 2
e|-------------------------------------|
B|-------------------------------------|
G|------9----------------/9------------|
D|------x------------------------------|
A|------7----------------/7------------|
E|-------------------------------------|

  {Gtr 1                            
e|----------------------------------------|
B|----------------------------------------|
G|----------------------------------------|
D|--2-2------77-7-6-7--2-2------77-6-4-6--|
A|--2-2------77-7-6-7--2-2------77-6-4-6--|
E|--0-0------55-5-4-5--0-0------55-4-2-4--|
  {Gtr 2      
e|----------------------------------------| 
B|----------------------------------------| 
G|------/13----------------/13------------| 
D|----------------------------------------| 
A|------/11----------------/11------------| 
E|----------------------------------------| 


[Verse 2] Hold the 466 chord in between the 022 and the 577; don't cut it short 
like you do the other ones.
  {Gtr 1
e|--------------------------------------------|
B|--------------------------------------------|
G|--------------------------------------------|
D|--2-2---6--7-7---6--2-2---6--7-7--6/7-7--6--|
A|--2-2---6--7-7---6--2-2---6--7-7--6/7-7--6--|
E|--0-0---4--5-5---4--0-0---4--5-5--4/5-5--4--|

  {Gtr 1
e|--------------------------------------------|
B|--------------------------------------------|
G|--------------------------------------------|
D|--2-2---6--7-7---6--2-2---6--7-7--6/7-7--7--|
A|--2-2---6--7-7---6--2-2---6--7-7--6/7-7--7--|
E|--0-0---4--5-5---4--0-0---4--5-5--4/5-5--5--|

  {Gtr 1
e|----------------------------------------------------------------------|
B|----------------------------------------------------------------------|
G|-------------------2-2-2-2-2-2-2-2------------------------------------|
D|--2-2-2-2-2-2-2-2--2-2-2-2-2-2-2-2--2-2-2-2-2-2-2-2--7-7-7-7-7-7-7-7--|
A|--2-2-2-2-2-2-2-2--0-0-0-0-0-0-0-0--2-2-2-2-2-2-2-2--7-7-7-7-7-7-7-7--|
E|--0-0-0-0-0-0-0-0-------------------0-0-0-0-0-0-0-0--5-5-5-5-5-5-5-5--|
      .............    .............   ........................


[Chorus 2]
  {Gtr 1
e|--------------------------------|
B|--------------------------------|
G|---------22-2-2---------22-2-2--|
D|--2-2-2--22-2-2--2-2-2--22-2-2--|
A|--2-2-2--00-0-0--2-2-2--00-0-0--|
E|--0-0-0----------0-0-0----------|

  {Gtr 1
e|------------------------------|
B|------------------------------|
G|---------22-2-2---------22-2--|
D|--2-2-2--22-2-2--2-2-2--22-2--|
A|--2-2-2--00-0-0--2-2-2--00-0--|
E|--0-0-0----------0-0-0--------|

  {Gtr 1
e|--------------------------------|
B|--------------------------------|
G|---------22-2-2---------22-2-2--|
D|--2-2-2--22-2-2--2-2-2--22-2-2--|
A|--2-2-2--00-0-0--2-2-2--00-0-0--|
E|--0-0-0----------0-0-0----------|

  {Gtr 1
e|----------------------------------------------------|
B|----------------------------------------------------|
G|---------22-2-2-22---------7-7-7-7------------------|
D|--2-2-2--22-2-2-22-9-9-9-9-7-7-7-7-7-7-7-7-7-7-7-7--|
A|--2-2-2--00-0-0-00-7-7-7-7-5-5-5-5-7-7-7-7-7-7-7-7--|
E|--0-0-0------------0-0-0-0---------5-5-5-5-5-5-5-5--|

  {Gtr 1
e|-------------------------------------------|
B|-------------------------------------------|
G|--9-9-9-9-7-7-7-7--------------------------|
D|--9-9-9-9-7-7-7-7-7-7-7-7-x-x-x-x-x-x-x-x--|
A|--7-7-7-7-5-5-5-5-7-7-7-7-x-x-x-x-x-x-x-x--|
E|------------------5-5-5-5-x-x-x-x-x-x-x-x--|


[Bridge]
       ~Part 1~
  {Gtr 2
e|------------------------------------------------|
B|------------------------------------------------|
G|------------------------------------------------|
D|--------2^--------2^--------2^----x-x-x-x-x-x---|
A|----------------------------------x-x-x-x-x-x---|
E|--0-0-0-----0-0-0-----0-0-0-----0-x-x-x-x-x-x---|

       ~Part 2 (Solo)~
  {Gtr 1
e|------------------------------------------------|
B|------------------------------------------------|
G|------------------------7-7-7-7-7---------------|
D|--2-2-2-2-2--4-4-4-4-4--7-7-7-7-7--7-7-7-7-7-6--|
A|--2-2-2-2-2--4-4-4-4-4--5-5-5-5-5--7-7-7-7-7-6--|
E|--0-0-0-0-0--2-2-2-2-2-------------5-5-5-5-5-4--|
  {Gtr 2 - Hold the 7 for a second ----> * 
e|--h5p4p0-h5p4p0-h7p5p0-h7p5p0---------------|
B|------------------------------h4h5p4h5/7p0--|
G|--------------------------------------------|
D|--------------------------------------------|
A|--------------------------------------------|
E|--------------------------------------------|

e|-------------------------------------------|
B|--h9p0-h10p0-h12p0-h10p0-h9p0-h7p0-h9-h10--|
G|-------------------------------------------|
D|-------------------------------------------|
A|-------------------------------------------|
E|-------------------------------------------|

  {Gtr 1
e|------------------------------------------------|
B|------------------------------------------------|
G|------------------------7-7-7-7-7---------------|
D|--2-2-2-2-2--4-4-4-4-4--7-7-7-7-7--7-7-7-7-7-6--|
A|--2-2-2-2-2--4-4-4-4-4--5-5-5-5-5--7-7-7-7-7-6--|
E|--0-0-0-0-0--2-2-2-2-2-------------5-5-5-5-5-4--|
  {Gtr 2 - Hold the 7 for a second ----> * 
e|--h5p4p0-h5p4p0-h7p5p0-h7p5p0---------------|
B|------------------------------h4h5p4h5/7p0--|
G|--------------------------------------------|
D|--------------------------------------------|
A|--------------------------------------------|
E|--------------------------------------------|

e|---------------------------------12b14r12~--|
B|--h9p0-h10p0-h12p0-h10p0-h9p0-h7------------|
G|--------------------------------------------|
D|--------------------------------------------|
A|--------------------------------------------|
E|--------------------------------------------|

       ~Part 3~
  {Gtr 1
e|----------------------|     
B|----------------------|
G|------------2-2--4-4--|
D|--2-2--4-4--2-2--4-4--|
A|--2-2--4-4--0-0--2-2--|
E|--0-0--2-2------------| 

  {Gtr 1
e|----------------------|
B|----------------------|     
G|------------2-2--4-4--|
D|--2-2--4-4--2-2--4-4--|     
A|--2-2--4-4--0-0--2-2--|
E|--0-0--2-2------------|     

  {Gtr 1
e|--------------------------------------|
B|--------------------------------------| 
G|--------------------2-2------4-4------|
D|--2-2------4-4------2-2------4-4------|
A|--2-2------4-4------0-0------2-2------|
E|--0-0------2-2------------------------|
  {Gtr 2
e|--------------------------------------|
B|--------------------------------------| 
G|--------------------------------------|
D|------1/2------1/2------1/2------1/2--|
A|--------------------------------------|
E|--------------------------------------|

  {Gtr 1                                    
e|--------------------------------------|
B|--------------------------------------| 
G|--------------------2-2------4--4-----|
D|--2-2------4-4------2-2------4--4-----|
A|--2-2------4-4------0-0------2--2-----|
E|--0-0------2-2------------------------|
  {Gtr 2
e|--------------------------------------|
B|--------------------------------------| 
G|--------------------------------------|
D|------1/2------1/2------1/2-----------|
A|----------------------------------7\--|
E|----------------------------------7\--|
                              
  {Gtr 1                             
e|----------------------------------------|
B|----------------------------------------|  
G|---------------------2-2------44-4------|
D|--2-2------44-4------2-2------44-4------| 
A|--2-2------44-4------0-0------22-2------| 
E|--0-0------22-2-------------------------|                                             
  {Gtr 2                 
e|----------------------------------------| 
B|----------------------------------------|
G|----------------------------------------|
D|------5/6-------5/6------5/6-------5/6--| 
A|----------------------------------------| 
E|----------------------------------------|

  {Gtr 1                           
e|-----------------------------------------| 
B|-----------------------------------------| 
G|---------------------2-------------------| 
D|--2-2------44-4------2--x-x-x-x-x-x-x-x--| 
A|--2-2------44-4------0--x-x-x-x-x-x-x-x--| 
E|--0-0------22-2---------x-x-x-x-x-x-x-x--|                  
  {Gtr 2                      
e|----------------------------------------| 
B|----------------------------------------|  
G|----------------------------------------| 
D|------5/6-------5/6---------------------|  
A|----------------------------------------| 
E|----------------------------------------| 


[Last Chorus]
  {Gtr 1
e|--------------------------------------|
B|--------------------------------------|
G|--------------------------------------|
D|--2-2-----77-7-6-7--2-2-----77-7-6-7--|
A|--2-2-----77-7-6-7--2-2-----77-7-6-7--|
E|--0-0-----55-5-4-5--0-0-----55-5-4-5--|
  {Gtr 2
e|--------------------------------------|
B|--------------------------------------|
G|------/9----------------/9------------|
D|--------------------------------------|
A|------/7----------------/7------------|
E|--------------------------------------|

  {Gtr 1
e|--------------------------------------|
B|--------------------------------------|
G|--------------------------------------|
D|--2-2-----77-7-6-7--2-2-----77-6-4-6--|
A|--2-2-----77-7-6-7--2-2-----77-6-4-6--|
E|--0-0-----55-5-4-5--0-0-----55-4-2-4--|
  {Gtr 2
e|--------------------------------------|
B|--------------------------------------|
G|------/9----------------/9------------|
D|--------------------------------------|
A|------/7----------------/7------------|
E|--------------------------------------|

  {Gtr 1                            
e|----------------------------------------|
B|----------------------------------------|
G|----------------------------------------|
D|--2-2------77-7-6-7--2-2------77-7-6-7--|
A|--2-2------77-7-6-7--2-2------77-7-6-7--|
E|--0-0------55-5-4-5--0-0------55-5-4-5--|
  {Gtr 2      
e|----------------------------------------| 
B|----------------------------------------| 
G|------/13----------------/13------------| 
D|----------------------------------------| 
A|------/11----------------/11------------| 
E|----------------------------------------|

  {Gtr 1                            
e|---------------------|
B|---------------------|
G|---------------------|
D|--2-2------77-7-6-7--|
A|--2-2------77-7-6-7--|
E|--0-0------55-5-4-5--|
  {Gtr 2      
e|---------------------| 
B|---------------------| 
G|------/13------------| 
D|---------------------| 
A|------/11------------| 
E|---------------------|

  {Gtr 1
e|-----------------------------------| 
B|-----------------------------------| 
G|----------7-7-7-7------------------|   
D|--9-9-9-9-7-7-7-7-7-7-7-7-7-7-7-7--|    
A|--7-7-7-7-5-5-5-5-7-7-7-7-7-7-7-7--|   
E|--0-0-0-0---------5-5-5-5-5-5-5-5--|    

  {Gtr 1                                     
e|---------------------------------------|
B|---------------------------------------|
G|--9-9-9-9-7-7-7-7----------------------|
D|--9-9-9-9-7-7-7-7-7-7-7-7-10-10-10-10--|
A|--7-7-7-7-5-5-5-5-7-7-7-7-10-10-10-10--|
E|------------------5-5-5-5-8--8--8--8---|

  {Gtr 1
e|-----------------------------------| 
B|-----------------------------------| 
G|----------7-7-7-7------------------|   
D|--9-9-9-9-7-7-7-7-7-7-7-7-7-7-7-7--|    
A|--7-7-7-7-5-5-5-5-7-7-7-7-7-7-7-7--|   
E|--0-0-0-0---------5-5-5-5-5-5-5-5--|    
  {Gtr 2
e|----------------------------------------------|
B|--9-10-9-10-12-10-9-10--9-10-9-10-9-----------|
G|--9-9--9-9--9--9--9-9---9-9--9-9--9--11-9-11--|
D|-------------------------------------11-9-11--|
A|----------------------------------------------|
E|----------------------------------------------|

  {Gtr 1                                     
e|---------------------------------------|
B|---------------------------------------|
G|--9-9-9-9-7-7-7-7----------------------|
D|--9-9-9-9-7-7-7-7-7-7-7-7-10-10-10-10--|
A|--7-7-7-7-5-5-5-5-7-7-7-7-10-10-10-10--|
E|------------------5-5-5-5-8--8--8--8---|
  {Gtr 2
e|----------------------------------------------|
B|--9-10-9-10-12-10-9-10--9-10-9-10-9-----------|
G|--9-9--9-9--9--9--9-9---9-9--9-9--9--11-9-11--|
D|-------------------------------------11-9-11--|
A|----------------------------------------------|
E|----------------------------------------------|

  {Gtr 1
e|---------------------------------------|
B|---------------------------------------|
G|--9-9-9-9-7-7-7-7----------------------|
D|--9-9-9-9-7-7-7-7-7-7-7-7-10-10-10-10--|
A|--7-7-7-7-5-5-5-5-7-7-7-7-10-10-10-10--|
E|------------------5-5-5-5-8--8--8--8---|
  {Gtr 2
e|----------------------------------------------|
B|--9-10-9-10-12-10-9-10--9-10-9-10-9-----------|
G|--9-9--9-9--9--9--9-9---9-9--9-9--9--11-9-11--|
D|-------------------------------------11-9-11--|
A|----------------------------------------------|
E|----------------------------------------------|

  {Gtr 1
e|---------------------------------------|
B|---------------------------------------|
G|--9-9-9-9-7-7-7-7----------------------|
D|--9-9-9-9-7-7-7-7-7-7-7-7-10-10-10-10--|
A|--7-7-7-7-5-5-5-5-7-7-7-7-10-10-10-10--|
E|------------------5-5-5-5-8--8--8--8---|
  {Gtr 2
e|----------------------------------------------|
B|--9-10-9-10-12-10-9-10--9-10-9-10-9-----------|
G|--9-9--9-9--9--9--9-9---9-9--9-9--9--11-9-11--|
D|-------------------------------------11-9-11--|
A|----------------------------------------------|
E|----------------------------------------------|

  {Gtr 1
e|---------------------------------------|
B|---------------------------------------|
G|--9-9-9-9-7-7-7-7----------------------|
D|--9-9-9-9-7-7-7-7-7-7-7-7-10-10-10-10--|
A|--7-7-7-7-5-5-5-5-7-7-7-7-10-10-10-10--|
E|------------------5-5-5-5-8--8--8--8---|
  {Gtr 2
e|----------------------------------------------|
B|--9-10-9-10-12-10-9-10--9-10-9-10-9-----------|
G|--9-9--9-9--9--9--9-9---9-9--9-9--9--11-9-11--|
D|-------------------------------------11-9-11--|
A|----------------------------------------------|
E|----------------------------------------------|

  {Gtr 1
e|---------------------------------------|
B|---------------------------------------|
G|--9-9-9-9-7-7-7-7----------------------|
D|--9-9-9-9-7-7-7-7-7-7-7-7-10-10-10-10--|
A|--7-7-7-7-5-5-5-5-7-7-7-7-10-10-10-10--|
E|------------------5-5-5-5-8--8--8--8---|
  {Gtr 2
e|----------------------------------------------|
B|--9-10-9-10-12-10-9-10--9-10-9-10-9-----------|
G|--9-9--9-9--9--9--9-9---9-9--9-9--9--11-9-11--|
D|-------------------------------------11-9-11--|
A|----------------------------------------------|
E|----------------------------------------------|

  {Gtr 1
e|---------------------------------------|
B|---------------------------------------|
G|--9-9-9-9-7-7-7-7----------------------|
D|--9-9-9-9-7-7-7-7-7-7-7-7-10-10-10-10--|
A|--7-7-7-7-5-5-5-5-7-7-7-7-10-10-10-10--|
E|------------------5-5-5-5-8--8--8--8---|
  {Gtr 2
e|----------------------------------------------|
B|--9-10-9-10-12-10-9-10--9-10-9-10-9-----------|
G|--9-9--9-9--9--9--9-9---9-9--9-9--9--11-9-11--|
D|-------------------------------------11-9-11--|
A|----------------------------------------------|
E|----------------------------------------------|


[Outro]
  {Gtr 2
e|----------------------------------------------|
B|--9-10-9-10-12-10-9-10--9-10-9-10-9-----------|
G|--9-9--9-9--9--9--9-9---9-9--9-9--9--11-9-11--|
D|-------------------------------------11-9-11--|
A|----------------------------------------------|
E|----------------------------------------------|

  {Gtr 2
e|------------------------------------------------|
B|--9-10-9-10-12-10-9-10--9-10-9-10-9-------------|
G|--9-9--9-9--9--9--9-9---9-9--9-9--9--11-9-11-9--|
D|-------------------------------------11-9-11-9--|
A|------------------------------------------------|
E|------------------------------------------------|
God bless. :)
Tap to rate this tab
 
# A B C D E F G H I J K L M N O P Q R S T U V W X Y Z