Sum 41 - Reason To Believe tab

Brand new album by Sum 41, Screaming Bloody Murder. Just tabbed this as soon as i got 
off of school after being yelled at by teachers to put away my Ipod. My response, was very 
colorful. Long story short, i didn't stop listening to this CD all day. ENJOY!!!

p.s. please don't forget to annoy your neighbors.

Intro x2

Guitar 1
e-----------------------------------------------------------------------------|
B-----------------------------------------------------------------------------|
G----7-7--7--7-7-------10-10--10---10-10--------5-5--5--5-5------5-5--5--5-5--|
D----7-7--7--7-7-------10-10--10---10-10--------5-5--5--5-5------5-5--5--5-5--|
A----5-5--5--5-5-------8--8---8----8--8---------3-3--3--3-3------3-3--3--3-3--|
E-----------------------------------------------------------------------------|


1St Riff x 3

Guitar 1
e-----------------------------------------------------------------------------|
B-----------------------------------------------------------------------------|
G----7-7--7--7-7--------10-10--10---10-10--------5-5--5--5-5------5-5--5--5-5-|
D----7-7--7--7-7--------10-10--10---10-10--------5-5--5--5-5------5-5--5--5-5-|
A----5-5--5--5-5--------8--8---8----8--8---------3-3--3--3-3------3-3--3--3-3-|
E-----------------------------------------------------------------------------|

Guitar 2

e----------------------------------------------------------------------------|
B----------------------------------------------------------------------------|
G----------------------------------------------------------------------------|
D----------------------------------------------------------------------------|
A--5-------5---7---8---10---8---7-----------3----------3---5---6---8----6----|
E------5------------------------------------------3--------------------------|

2nd Riff x9

e----------------------------------------------------------------------------|
B----------------------------------------------------------------------------|
G----7-7--7--7-7-------10-10--10---10-10-------5-5--5--5-5-------------------|
D----7-7--7--7-7-------10-10--10---10-10-------5-5--5--5-5------5-5--5--5-5--|
A----5-5--5--5-5-------8--8----8----8--8-------3-3--3--3-3------5-5--5--5-5--|
E---------------------------------------------------------------3-3--3--3-3--|
Tap to rate this tab
 
# A B C D E F G H I J K L M N O P Q R S T U V W X Y Z