Guitaretab - guitar tabs
Song name
# A B C D E F G H I J K L M N O P Q R S T U V W X Y Z

Sum 41 - Sick Of Everyone tab

-------------------------------------------------------------------------------
			     SICK OF EVERYONE - Sum 41
-------------------------------------------------------------------------------
Tabbed by: shenanigan

Tuning: Drop D


*******************************************************************************

Intro

e|------------------------------------------------------------------|
B|------------------------------------------------------------------|
G|------------------------------------------------------------------|
D|------------------------------------------------------------------|
A|------------------------------------------------------------------|
D|-0-0-0-0-8\7-7-7-3-3-3-3-3/5-5-5-0-0-0-0-8\7-7-7-3-3-3-3-3/5-1~~~-|


e|----------------------------------------------------------------|
B|----------------------------------------------------------------|
G|----------------------------------------------------------------|
D|----------------------------------------------------------------|
A|---------------------------------------------------------5-5----|
D|-0-0-0-0-8\7-7-7-3-3-3-3-3/5-5-5-0-0-0-0-8\7-7-7-3-3-3-3-5-5----|


w/lead

e|----------------------------------------------------------------------|
B|----------------------------------------------------------------------|
G|----------------------------------------------------------------------|
D|----------------------------------------------------------------------|
A|-0-0-0-0-8\7-7-7--3-3-3-3-3/5-5-5--0-0-0-0-8\7-7-7--3-3-3-3-3/5--1~~~-|
D|-0-0-0-0-8\7-7-7--3-3-3-3-3/5-5-5--0-0-0-0-8\7-7-7--3-3-3-3-3/5--1~~~-|
 |                                                                      |   x2
e|----------------------------------------------------------------------|
B|----------------------------------------------------------------------|
G|-7-7-7-7-7/9-9-9-1010101010/121212-7-7-7-7-7/9-9-9-1010101010/12-8~~~-|
D|-x-x-x-x-x-x-x-x--x-x-x-x-x--x-x-x-x-x-x-x-x-x-x-x--x-x-x-x-x--x-x----|
A|-5-5-5-5-5/7-7-7--8-8-8-8-8/101010-5-5-5-5-5/7-7-7--8-8-8-8-8/10-6~~~-|
D|----------------------------------------------------------------------|


Guitar riff ends with  A|-0---|  chord and piano on Dm chord kicks in.  
                       D|-0---|           

*********************************************************************************

Verse

Dm                                 Bb
While looking for the answers only questions come to mind

      Gm                                    A
cause I've been lost in circles which seems now for quite some time

      Dm                                Bb
And I do't know how I came here or even how I got this far

    Gm                           A
All I can tell you is my fate is written in the black stars, well ...


What am I supposed to do?


*********************************************************************************

Pre-Chorus


e|------------------------------------------------------------------|
B|------------------------------------------------------------------|
G|-7-7---7-7-7-7-7-7-7---7-7-7-7-7--3-3---3-3-3-3-3-3-3---3-3-3-3-3-|
D|-x-x---x-x-x-x-x-x-x---x-x-x-x-x--x-x---x-x-x-x-x-x-x---x-x-x-x-x-|
A|-5-5---5-5-5-5-5-5-5---5-5-5-5-5--1-1---1-1-1-1-1-1-1---1-1-1-1-1-|
D|------------------------------------------------------------------|
 |                                                                  |
e|------------------------------------------------------------------|
B|------------------------------------------------------------------|
G|-7-7---7-7-7-7-7-7-7---7-7-7-7-7-1010--10101010101010--101010-9-9-|
D|-x-x---x-x-x-x-x-x-x---x-x-x-x-x--x-x---x-x-x-x-x-x-x---x-x-x-x-x-|
A|-5-5---5-5-5-5-5-5-5---5-5-5-5-5--8-8---8-8-8-8-8-8-8---8-8-8-7-7-|
D|------------------------------------------------------------------|
   Bless    myself      this        perfect         hell     of my


e|------------------------------------------------------------------------|
B|------------------------------------------------------------------------|
G|------------------------------------------------------------------------|
D|--3-3---3-3-3-3-3--3-3----3-3-3-3-3--7-7----7-7-7-7-7--7-7----7-7-7-7-7-|
A|--x-x---x-x-x-x-x--x-x----x-x-x-x-x--x-x----x-x-x-x-x--x-x----x-x-x-x-x-|
D|--3-3---3-3-3-3-3--3-3----3-3-3-3-3--7-7----7-7-7-7-7--7-7----7-7-7-7-7-|
 |                                                                        |
e|------------------------------------------------------------------------|
B|------------------------------------------------------------------------|
G|-1010--101010-9-9-10101010-12121212-14141414-12121212-10101010-12121212-|
D|--x-x---x-x-x-x-x--x-x-x-x--x-x-x-x--x-x-x-x--x-x-x-x-x-x-x-x---x-x-x-x-|
A|--8-8---8-8-8-7-7--8-8-8-8-10101010-12121212-10101010--8-8-8-8-10101010-|
D|------------------------------------------------------------------------|
    own --                    it's the  best I've ever known 


e|------------------------------------------------------------------|
B|------------------------------------------------------------------|
G|----------------------------------3-3---3-3-3---3-3-3---3-3-3---3-|
D|-0-0---0-0-0---0-0-0---0-0-0---0--3-3---3-3-3---3-3-3---3-3-3---3-|
A|-0-0---0-0-0---0-0-0---0-0-0---0--1-1---1-1-1---1-1-1---1-1-1---1-|
D|-0-0---0-0-0---0-0-0---0-0-0---0----------------------------------|
 |                                                                  |
e|------------------------------------------------------------------|
B|------------------------------------------------------------------|
G|-7-7---7-7-7-7-7-7-7---7-7-7-7-7-1010--10101010101010--101010-9-9-|
D|-x-x---x-x-x-x-x-x-x---x-x-x-x-x--x-x---x-x-x-x-x-x-x---x-x-x-x-x-|
A|-5-5---5-5-5-5-5-5-5---5-5-5-5-5--8-8---8-8-8-8-8-8-8---8-8-8-7-7-|
D|------------------------------------------------------------------|
   tell   me     some  thing          I    don't    want      to


e|------------------------------------------------------------------------|
B|------------------------------------------------------------------------|
G|-------------------------------------2-2----2-2-2----2-2-2----2-2-2---2-|
D|--3-3---3-3-3----3-3-3----3-3-3---3--2-2----2-2-2----2-2-2----2-2-2---2-|
A|--3-3---3-3-3----3-3-3----3-3-3---3--0-0----0-0-0----0-0-0----0-0-0---0-|
D|--3-3---3-3-3----3-3-3----3-3-3---3-------------------------------------|
 |                                                                        |
e|------------------------------------------------------------------------|
B|------------------------------------------------------------------------|
G|-1010--101010-9-9-10101010-12121212-14141414-12121212-10101010-12121212-|
D|--x-x---x-x-x-x-x--x-x-x-x--x-x-x-x--x-x-x-x--x-x-x-x-x-x-x-x---x-x-x-x-|
A|--8-8---8-8-8-7-7--8-8-8-8-10101010-12121212-10101010--8-8-8-8-10101010-|
D|------------------------------------------------------------------------|
    know  --                   cause I can't believe it's so

[ Tab from: http://www.guitaretab.com/s/sum-41/270514.html ]
e|------------------------------------------------------------------------|
B|------------------------------------------------------------------------|
G|------------------------------------------------------------------------|
D|--5-5---5-5-5----5-5-5----5-5-5----5-7-7----7-7-7----7-7-7---7---7\-----|
A|--5-5---5-5-5----5-5-5----5-5-5----5-7-7----7-7-7----7-7-7---7---7\-----|
D|--5-5---5-5-5----5-5-5----5-5-5----5-7-7----7-7-7----7-7-7---7---7\-----|
 |                                                                        |
e|------------------------------------------------------------------------|
B|------------------------------------------------------------------------|
G|-10101010-9-9-9-9-10101010-12121212-14141414-12121212-14\---------------|
D|--x-x-x-x-x-x-x-x--x-x-x-x--x-x-x-x--x-x-x-x--x-x-x-x--x\---------------|
A|--8-8-8-8-7-7-7-7--8-8-8-8-10101010-12121212-10101010-12\---------------|
D|------------------------------------------------------------------------|
                     what am I supposed to  doooooooo ?


********************************************************************************

Chorus


   e|-----------------------------------------------------------------|
   B|-----------------------------------------------------------------|
   G|---------------------------------3-3-3-3-3-3-3-3-3-3-3-3-3-3-3-3-|
   D|-0-0-0-0-0-0-0-0-0-0-0-0-0-0-0-0-3-3-3-3-3-3-3-3-3-3-3-3-3-3-3-3-|
   A|-0-0-0-0-0-0-0-0-0-0-0-0-0-0-0-0-1-1-1-1-1-1-1-1-1-1-1-1-1-1-1-1-|
   D|-0-0-0-0-0-0-0-0-0-0-0-0-0-0-0-0---------------------------------|

1) I've become     sick   of    every-one   now    and I  don't  feel
2) I've become     sick   of    every-one   now    and I'm the patron


e|-----------------------------------------------------------------|
B|-----------------------------------------------------------------|
G|-----------------------------------------------------------------|
D|-5-5-5-5-5-5-5-5-5-5-5-5-5-5-5-5-7-7-7-7-7-7-7-7-7-7-7-7-7-7-7-7-|
A|-5-5-5-5-5-5-5-5-5-5-5-5-5-5-5-5-7-7-7-7-7-7-7-7-7-7-7-7-7-7-7-7-|
D|-5-5-5-5-5-5-5-5-5-5-5-5-5-5-5-5-7-7-7-7-7-7-7-7-7-7-7-7-7-7-7-7-|

 remorse  for  the  forgotten  and I don't   care  at all  
   voice of all the problems   and I     don't    care    at    all


********************************************************************************

Bridge

e|----------------------------------------------------------------------|
B|----------------------------------------------------------------------|
G|----------------------------------------------------------------------|
D|-0--0--0--0--0------------0--0--0--0--0-------0--0--0--0--0--0--0--0--|
A|-0--0--0--0--0------------0--0--0--0--0-------0--0--0--0--0--0--0--0--|
D|-0--0--0--0--0------------0--0--0--0--0-------0--0--0--0--0--0--0--0--|
                  ^                        ^
                  some effects here and here

e|----------------------------------------------|
B|----------------------------------------------|
G|-7-7-7-7~~-7-7-7-7-7~~-7-7-7-7-7-7-7-7-7-7-7\-|
D|-x-x-x-x~~-x-x-x-x-x~~-x-x-x-x-x-x-x-x-x-x-x\-|
A|-5-5-5-5~~-5-5-5-5-5~~-5-5-5-5-5-5-5-5-5-5-5\-|
D|----------------------------------------------|


e|--------------------------------------------------|
B|--------------------------------------------------|
G|--------------------------------------------------|
D|--------------------------------------------------|
A|--------------------------------------------------|
D|-0-00-00000-08-88-88888-83-33-33333-37-77-77777-7-|
                     
Oh take        me      a - way     I'm sick   of


e|--------------------------------------------------|
B|--------------------------------------------------|
G|--------------------------------------------------|
D|--------------------------------------------------|
A|--------------------------------------------------|
D|-0-00-00000-08-88-88888-83-33-33333-37-77-77777-7-|

   e - very    one    to - day,  I'm   not    


e|--------------------------------------------------------------|
B|--------------------------------------------------------------|
G|--------------------------------------------------------------|
D|--------------------------------------------------------------|
A|--------------------------------------------------------------|
D|-0-0---0-0-0---0-8-8---8-8-8---8-3-3---3-3-3---3-7777-77777-7-|

 o-kay     but I'm fine    this    waaay        I  need   no


e|--------------------------------------------------|
B|--------------------------------------------------|
G|--------------------------------------------------|
D|--------------------------------------------------|
A|--------------------------------------------------|
D|-0-00-00000-08-88-88888-83-33-33333-37-77-77777-7-|

   change    so take  me  awaaaaaaay-



Dm                   Bb
   I'm coming down.      Fell apart.                            
                                                               <--- just bass notes
     A                              Gm
It's hard to keep together when you don't know where to start


**************************************************************************************



Chorus


   e|-----------------------------------------------------------------|
   B|-----------------------------------------------------------------|
   G|---------------------------------3-3-3-3-3-3-3-3-3-3-3-3-3-3-3-3-|
   D|-0-0-0-0-0-0-0-0-0-0-0-0-0-0-0-0-3-3-3-3-3-3-3-3-3-3-3-3-3-3-3-3-|
   A|-0-0-0-0-0-0-0-0-0-0-0-0-0-0-0-0-1-1-1-1-1-1-1-1-1-1-1-1-1-1-1-1-|
   D|-0-0-0-0-0-0-0-0-0-0-0-0-0-0-0-0---------------------------------|

1) I've become     sick   of    every-one   now    and I  don't  feel
2) I've become     sick   of    every-one   now    and I'm the patron


e|-----------------------------------------------------------------|
B|-----------------------------------------------------------------|
G|-----------------------------------------------------------------|
D|-5-5-5-5-5-5-5-5-5-5-5-5-5-5-5-5-7-7-7-7-7-7-7-7-7-7-7-7-7-7-7-7-|
A|-5-5-5-5-5-5-5-5-5-5-5-5-5-5-5-5-7-7-7-7-7-7-7-7-7-7-7-7-7-7-7-7-|
D|-5-5-5-5-5-5-5-5-5-5-5-5-5-5-5-5-7-7-7-7-7-7-7-7-7-7-7-7-7-7-7-7-|

 remorse  for  the  forgotten  and I don't   care   at all  
   voice of all the problems but I'm sick     of    every - one


**********************************************************************************

Outro riff

e|----------------------------------------------------------------------|
B|----------------------------------------------------------------------|
G|----------------------------------------------------------------------|
D|----------------------------------------------------------------------|
A|-0-0-0-0-8\7-7-7--3-3-3-3-3/5-5-5--0-0-0-0-8\7-7-7--3-3-3-3-3/5--1~~~-|
D|-0-0-0-0-8\7-7-7--3-3-3-3-3/5-5-5--0-0-0-0-8\7-7-7--3-3-3-3-3/5--1~~~-|
 |                                                                      |   x2
e|----------------------------------------------------------------------|
B|----------------------------------------------------------------------|
G|-7-7-7-7-7/9-9-9-1010101010/121212-7-7-7-7-7/9-9-9-1010101010/12-8~~~-|
D|-x-x-x-x-x-x-x-x--x-x-x-x-x--x-x-x-x-x-x-x-x-x-x-x--x-x-x-x-x--x-x----|
A|-5-5-5-5-5/7-7-7--8-8-8-8-8/101010-5-5-5-5-5/7-7-7--8-8-8-8-8/10-6~~~-|
D|----------------------------------------------------------------------|


e|----------------------|
B|----------------------|
G|----------------------|
D|-0-0-0-0-0-0-0-0-0----|
A|-0-0-0-0-0-0-0-0-0----|
D|-0-0-0-0-0-0-0-0-0----|
 | 
e|----------------------|
B|----------------------|
G|-7-7-7-7-7-7-7-7-7----|
D|-x-x-x-x-x-x-x-x-x----|
A|-5-5-5-5-5-5-5-5-5----|
D|----------------------|


************************************************************************************

That's it. Hope you enjoyed. If you have any questions or corrections, feel free to comment!
Related for Sick Of Everyone tab
×
Best way to learn
"Sick Of Everyone"