Sum 41 - Screaming Bloody Muder tab

**IF you like this kind of music, check out our band Leftover Brook at:**
www.myspace.com/leftoverbrook


A lot of the tabs for this song are either: completely wrong, hard to
follow, or are in a different tuning. so i decided to tab this solo out by
ear in standard tuning. the solo itself is not too difficult, and i tabbed 
it out as easy-to-follow as i could, however there may still be some people 
who find this tab difficult to read, so just leave a comment and I'll get 
back to you as soon as i can. thanks for looking at my tab. please rate, 
comment and enjoy

(2:03)
e|--------------------------------------------------------------|
B|--8-8-----8-8-----6-6-----6-6--------8------8----8------------|
G|------8-8-----8-8-----7-7-----7-7----10^12----12---12r10--8~--|
D|--------------------------------------------------------------|
A|--------------------------------------------------------------|
E|--------------------------------------------------------------|

(2:08)
e|------------------------------6--------6------6~--------------|
B|--8----------6--------------6--------6--------6~--------------|
G|--10^12------8^10------8^10-----8^10-----8^10-----------------|
D|--------------------------------------------------------------|
A|--------------------------------------------------------------|
E|--------------------------------------------------------------|


(2:13)
    ********************** 
e|--------------------------------------------------------------|
B|--16-15-13-11-13-11-8-11----8-6h8p6--6-4h6p4------------------|
G|---------------------------------------------4~---------------|
D|--------------------------------------------------------------|
A|--------------------------------------------------------------|
E|--------------------------------------------------------------|
 

(2:18)
   ************************
e|--------------------------------------------------------------|
B|-13----15----16----18--20---20b21r20b21r20~-------------------|
G|--------------------------------------------------------------|
D|--------------------------------------------------------------|
A|--------------------------------------------------------------|
E|--------------------------------------------------------------|

Tab Legend:
* = Tremolo Pick
^ = Bend String
b = also means Bend String
r = Release Bend
h = Hammer-On
p = Pull-Off
~ = Vibrato
Tap to rate this tab
 
# A B C D E F G H I J K L M N O P Q R S T U V W X Y Z