Song name
# A B C D E F G H I J K L M N O P Q R S T U V W X Y Z

Sum 41 - Noots tab

Sum 41 - Noots
Tuning: Drop D

Intro

Guitar 1
E|-8--8--8--8--/-9--9--9--9--/-|
B|-9--9--9--9--/-9--9--9--9--/-|
G|-10-10-10-10-/-10-10-10-10-/-| (Slide back to first chord)
D|-10-10-10-10-/-11-11-11-11-/-|
A|-8--8--8--8--/-11-11-11-11-/-|
d|-----------------------------|

Guitar 2
E|-x-x-x-x-x-x-------|
B|-x-x-x-x-x-x-------|
G|-x-x-x-x-x-x-------|
D|-x-x-x-x-x-x-------|
A|-x-x-x-x-x-x-------|
d|-x-x-x-x-x-x-11/1--|

Intro Part 2

Guitar 1 (Repeat 2x)

E|-------------------------------------------|
B|-------------------------------------------|
G|-10-10-12-12-13-13-12-12-10-10-12-12-13-13-|
D|-------------------------------------------|
A|-8--8--10-10-11-11-10-10-8--8--10-10-11-11-|
d|-------------------------------------------|

E|----------------------------------------------|
B|----------------------------------------------|
G|--8-8-10-10-12-12-13-13-15-15-13-13-12-12-8-8-|
D|----------------------------------------------|
A|--6-6-8--8--10-10-11-11-13-13-11-11-10-10-6-6-|
d|----------------------------------------------|


Guitar 2 (Repeat 2x)
E|-------------------------------------|
B|-------------------------------------|
G|---------6---------------------------|
D|--3------6-(8x)-1------6------5------|
A|--3-(8x)-4------1-(8x)-6-(4x)-6-(4x)-|
d|--3-------------1------6------5------|

Verse (Guitar 1 , PALM MUTED)

E|----------------------------------------------------------------|
B|----------------------------------------------------------------|
G|----------------------------------------------------------------|
D|---------------6------------------------------------------------|
A|-3------6------4-(16x)-3------6------8------6------8------6-----|
d|-3-(8x)-4-(8x)---------3-(8x)-4-(8x)-6-(4x)-4-(4x)-6-(4x)-4-(4x)|

Repeat Verse for Guitar 1 two times

Guitar 2 Verse (Comes in on second repeat)

E|-8--8--8----8--8--8----9--9--9--9--9--9--9--9-/---|
B|-9--9--9----9--9--9----9--9--9--9--9--9--9--9-/---|
G|-10-10-10---10-10-10---10-10-10-10-10-10-10-10/---|
D|-10-10-10---10-10-10---11-11-11-11-11-11-11-11/---|
A|-8--8--8----8--8--8----11-11-11-11-11-11-11-11/---|
d|--------------------------------------------------|

Pre Chorus

E|-----------------------------------------| Guitar 2
B|-----------------------------------------|
G|-8-8-8-8/6/8/10/8/6--8-8-8/10/12-12-12---|
D|-----------------------------------------|
A|-6-6-6-6/4/6/8-/6/4--6-6-6/8/-10-10-10---|
d|-----------------------------------------|

                               E|-xxxxxxxx-|Guitar 1
                               B|-xxxxxxxx-|
                               G|-xxxxxxxx-|
                               D|-xxxxxxxx-|
                               A|-xxxxxxxx-|
                               d|-xxxxxxxx-|

Chorus (Guitars 1 and 2)

E|----------------------------------|
B|----------------------------------|
G|--------6-------------------------|
D|-3------6------6------1-----------|Repeat 2x
A|-3------4 (8x)-6------1-----------|
d|-3-(8x)--------6-(8x)-1-(8x)------|

E|----------------------------------|
B|----------------------------------|
G|-6--------------------------------|
D|-6------3------6------1-----------|
A|-4-(8x)-3------6------1-----------|
d|--------3-(8x)-6-(8x)-1-(8x)------|

Repeat from Intro Part 2

Bridge (Guitars 1 and 2)

E|---------------------------------------------------|
B|---------------------------------------------------|
G|-10x-10-10x-10-6-x-66-x-6------------8-x-88-x-8----|
D|-10x-10-10x-10-6-x-66-x-6-6-x-66-x-6-8-x-88-x-8----|
A|-8-x-8--8-x-8--4-x-44-x-4-6-x-66-x-6-6-x-66-x-6----|
d|--------------------------6-x-66-x-6---------------|

E|---------------------------------------------------|
B|---------------------------------------------------|
G|-10x-10-10x-10-6-x-66-x-6--------------------------|
D|-10x-10-10x-10-6-x-66-x-6-6-x-66-x-6-5-x-55-x-5----|
A|-8-x-8--8-x-8--4-x-44-x-4-6-x-66-x-6-6-x-66-x-6----|
d|--------------------------6-x-66-x-6-5-x-55-x-5----|

Interlude

Guitar 1

E|---------------------------------------------------------------|
B|-9--9---9--9--9---9--9--9---9--9--9---11-11-11--11-11-11-------|
G|-10-10--10-10-10--10-10-10--10-10-10--10-10-10--10-10-10-------|
D|---------------------------------------------------------------|
A|---------------------------------------------------------------|
d|---------------------------------------------------------------|

E|--------------------|
B|-9--9--9------------|
G|-10-10-10--8--8--8--| (Repeat Guitar 1 6x)
D|-----------10-10-10-|
A|--------------------|
d|--------------------|

Guitar 2 (Comes in on third repeat)

E|----------------------------------------------|
B|-9--9---9--9--11-11-11--9--9---9--9--11-11-11-|
G|-10-10--10-10-10-10-10--10-10--10-10-10-10-10-|
D|----------------------------------------------|
A|----------------------------------------------|
d|----------------------------------------------| Repeat Guitar 2 
                                                  until chorus
E|-------8-8-8-8-8-8-6-6-6-6-6-6-6-6------------|
B|-9--9--9-9-9-9-9-9-8-8-8-8-8-8-8-8------------|
G|-10-10----------------------------------------|
D|----------------------------------------------|
A|----------------------------------------------|
d|----------------------------------------------|

(PICKSLIDE)

Play Chorus

Outro (10's, 11's, 12's and 13's not 1's, 0's, 2's and 3's)

E|-----------------------------------------------|
B|-----------------------------------------------|
G|-1010-1212-1313-1212-1010-1212-1313-1212-------|
D|-----------------------------------------------|
A|-8-8--1010-1111-1010-8-8--1010-1111-1010-------|
d|-----------------------------------------------|

E|-----------------------------------------------
B|-----------------------------------------------|
G|-1010-1212-1313-1010-1515-1313-1212-88---------|
D|-----------------------------------------------|
A|-8-8--1010-1111-8-8--1313-1111-1010-66---------|
d|-----------------------------------------------|

E|-----------------------------------------------|
B|-----------------------------------------------|
G|-1010-1212-1313-1212-1010-1212-1313-1212-------|
D|-----------------------------------------------|
A|-8-8--1010-1111-1010-8-8--1010-1111-1010-------|
d|-----------------------------------------------|

E|-----------------------------------------------|
B|-----------------------------------------------|
G|-88-1010-1212-88-1515-1313-1212-88-------------|
D|-----------------------------------------------|
A|-66-8-8--1010-66-1313-1111-1010-66-------------|
d|-----------------------------------------------|

Guitar 2 

E|---------------------------------------------------|
B|---------------------------------------------------|
G|-10x-10-10x-10-6-x-66-x-6------------8-x-88-x-8----|
D|-10x-10-10x-10-6-x-66-x-6-6-x-66-x-6-8-x-88-x-8----|
A|-8-x-8--8-x-8--4-x-44-x-4-6-x-66-x-6-6-x-66-x-6----|
d|--------------------------6-x-66-x-6---------------|

E|---------------------------------------------------|
B|---------------------------------------------------|
G|-10x-10-10x-10-6-x-66-x-6--------------------------|
D|-10x-10-10x-10-6-x-66-x-6-6-x-66-x-6-5-x-55-x-5----|
A|-8-x-8--8-x-8--4-x-44-x-4-6-x-66-x-6-6-x-66-x-6----|
d|--------------------------6-x-66-x-6-5-x-55-x-5----|

Guitar 1 end on E|------|
                B|------|
                G|-10~~-|
                D|-10~~-|
                A|-8~~~-|
                d|------|

Guitar 2 end on E|------|
                B|------|
                G|------|
                D|-3~~--|
                A|-3~~--|
                d|-3~~--|
Tap to rate this tab
 
# A B C D E F G H I J K L M N O P Q R S T U V W X Y Z