Song name
# A B C D E F G H I J K L M N O P Q R S T U V W X Y Z

Sum 41 - Still Waiting tab

Wrote by niven5 (ISR)
Ok this is my first tab that Im writing on ultimate guitar.

-----Still Waiting - Guitar Solo-----

Gtr. 1 (LEAD):
|----------------|---------------|---------------|-------------------|
|----------------|---------------|---------------|-------------------|
|----------------|---------------|---------------|-------------------|
|-----9----------|---9-----------|---9-----------|-------------------|
|---7--10-9----9-|-7---10-9----9-|-7---10-9----9-|-10-9-9-10-12-10-9-|
|-----------10---|----------10---|----------10---|-------------------|X2

Version 2:
|----------------|---------------|---------------|-------------------|
|----------------|---------------|---------------|-------------------|
|-----4----------|-----4---------|-----4---------|-------------------|
|---2--5-4-----4-|---2--5-4----4-|---2--5-4----4-|--5-4-4-5-7-5-4-5--|
|-----------5----|-----------5---|-----------5---|-------------------|
|----------------|---------------|---------------|-------------------|X2

(play the last bar another time)

and then the bridge to the chorus:
|----------------|
|----------------|
|-4-4-4-4-4-4-4-4|
|-4-4-4-4-4-4-4-4|
|-2-2-2-2-2-2-2-2|
|----------------|X2 

NOW THE CHORUS AND THE END..
Credits:
SUSUMETAL (Youtube) - Version 2
Tap to rate this tab
 
# A B C D E F G H I J K L M N O P Q R S T U V W X Y Z