Song name
# A B C D E F G H I J K L M N O P Q R S T U V W X Y Z

Sum 41 - Baby You Dont Wanna Know tab

-------------------------------------------------------------------------------
			     BABY YOU DON'T WANNA KNOW - Sum41
-------------------------------------------------------------------------------
Tabbed by: Jake 
Check me out on youtube if you want to see how its done!
http://www.youtube.com/watch?v=nrgZ9a2DDS8


Tuning: Standard (EADGBe)

Intro (x6)

e|---------------------------------------------------------------------------|
B|---------------------------------------------------------------------------|
G|-5--7-7--5--7---5--7--5--7--5--7--5----------------------------------------|
D|-5--7-7--5--7---5--7--5--7--5--7--5--7-------------------------------------|
A|-------------------------------------7-------------------------------------|
E|---------------------------------------------------------------------------|
Verse (All x2)
e|-----------------------------------------------|-----------------------------------------|
B|-----------------------------------------------|-----------------------------------------|
G|-5--7-7--5--7---5--7--5--7--5--7--5-------(x2)-|-----------------------------------------|
D|-5--7-7--5--7---5--7--5--7--5--7--5--7---------|--5--5-5-5--5-5-5--5-5-5-5-5-------------|
A|-------------------------------------7---------|--5--5-5-5--5-5-5--5-5-5-5-5-------------|
E|-----------------------------------------------|--3--3-3-3--3-3-3--3-3-3-3-3-------------|

e|---------------------------------------------------------------------------|
B|---------------------------------------------------------------------------|
G|-5--7-7--5--7---5--7--5--7--5--7--5------(x2 second time)------------------|
D|-5--7-7--5--7---5--7--5--7--5--7--5--7-------------------------------------|
A|-------------------------------------7-------------------------------------|
E|---------------------------------------------------------------------------|
Chorus (x4)
e|---------------------------------------------------------------------------|
B|---------------------------------------------------------------------------|
G|-----------------5--5-5-5-5------------------5--7-7--5--7--5---------------|
D|-7--7-7-7-7------5--5-5-5-5-----5-5-5-5-5----5--7-7--5--7--5--7------------|
A|-7--7-7-7-7------3--3-3-3-3-----5-5-5-5-5---------------------7------------|
E|-5--5-5-5-5---------------------3-3-3-3-3----------------------------------|
Play Intro riff once, then:
e|---------------------------------------------------------------------------|
B|---------------------------------------------------------------------------|
G|-5--7-7--5--7---5--7-------------------------------------------------------|
D|-5--7-7--5--7---5--7-------------------------------------------------------|
A|---------------------------------------------------------------------------|
E|---------------------------------------------------------------------------|
Verse 2- same as verse 1
Chorus X2


Solo:
e|---------------------------------------------------------------------------|
B|-10-10-10-10-10-10-10-13-10-13b(15)r13--10-13-10-13b(15)r13----------------|
G|---------------------------------------------------------------------------|
D|---------------------------------------------------------------------------|
A|---------------------------------------------------------------------------|
E|---------------------------------------------------------------------------|

e|----------10-10-10-11-10---------------------------------------------------|
B|-10-13-10----------------13-10-8-10----------------------------------------|
G|---------------------------------------------------------------------------|
D|---------------------------------------------------------------------------|
A|---------------------------------------------------------------------------|
E|---------------------------------------------------------------------------|

e|---------------------------------------------------------------------------|
B|-------------------------------------3-3-3-4-3-----------------------------|
G|-2-2-5-2-5b(7)r5-2-5-2-5b(7)r5-2-5-2-----------5-2-0-2~--------------------|
D|---------------------------------------------------------------------------|
A|---------------------------------------------------------------------------|
E|---------------------------------------------------------------------------|
Bridge: Silent until the very end, with this:
e|---------------------------------------------------------------------------|
B|---------------------------------------------------------------------------|
G|---------------------------------------------------------------------------|
D|3-3-3-3-3-3-3-3-3-3-3-3-3-3-3-3-3-3-3-3-3-3-3-3-3-3-3-3-3-3-3-3-3-3-3------|
A|3-3-3-3-3-3-3-3-3-3-3-3-3-3-3-3-3-3-3-3-3-3-3-3-3-3-3-3-3-3-3-3-3-3-3------|
E|1-1-1-1-1-1-1-1-1-1-1-1-1-1-1-1-1-1-1-1-1-1-1-1-1-1-1-1-1-1-1-1-1-1-1------|

Repeact Chorus until end, finish on
e|---------|
B|---------|
G|--7------|
D|--7------|
A|--5------|
E|---------|




************************************

| /   slide up
| \   slide down
| h   hammer-on
| p   pull-off
| ~   vibrato
| +   harmonic
| x   Mute note
| b   Bend
| pb  Pre-bend
| br  Bend release
| pbr Pre-bend release
| brb Bend release bend

************************************
Tap to rate this tab
 
# A B C D E F G H I J K L M N O P Q R S T U V W X Y Z