Song name
# A B C D E F G H I J K L M N O P Q R S T U V W X Y Z

Sum 41 - No Reason tab

                        No Reason-Sum 41 
                      Tabbed by undrclsshero
h-hammer on
p-pull off
*-palm mute
/-slide

intro   "all of us believe..."
Eb|----------------------------------------------|  
Bb|----------------------------------------------|  
Gb|-----------5--------------4--7----------------| 
Db|---2----2--5--5--2-2---2--4--7----22---2------|  repeat
Ab|---2----2--3--5--2-2---2--2--5----22---2------|
Eb|---0----0-----3--0-0---0----------00---0------|
                                     **
riff 1 "hey!... hey!...."
Eb|--------------------------------------------------------|  
Bb|--------------------------------------------------------|
Gb|--------------------------------------------------------| 
Db|--------------------------------------------------------|
Ab|-------10-10p9---------10-10p9---------10-10p9----------|
Eb|--0-00---------10--00-----------10--00---------10-------|


Eb|----------------------|  
Bb|----------------------|
Gb|----------------------| 
Db|---10-10--5-5---------|
Ab|---10-10--5-5---------|
Eb|---8--8---3-3---------|


Eb|--------------------------------------------------------------|  
Bb|--------------------------------------------------------------|
Gb|--------------------------------------------------------------| 
Db|--------------------------------------------------------------|
Ab|-------10-10p9---------10-10p9---------10-10p9-------9/----12-|
Eb|--0-00---------10--00-----------10--00---------10--7/---10----|

riff 2
Eb|------------------------------------------------------------|  
Bb|------------------------------------------------------------|
Gb|------------------------------------------------------------| 
Db|------------------------------------------------------------|repeat
Ab|----10-10p9-------10-10p9---------10-10p9--------9/----12---|
Eb|-00---------10-88---------10---00---------10--7/----10------|


verse (guitar 1)
Eb|--------------------------------------------------|  
Bb|--------------------------------------------------|
Gb|--------------------------------------------------| 
Db|--------------------------------------------------|
Ab|--------------------10-9--------------------------| play about 7 times
Eb|--0000--8877--0000-------10-10--------------------|
     ****  ****  ****  *  * *  *
guitar 2 (comes in at 5th time)
Eb|-----------------------------------------------------------------------|  
Bb|--5555-7777-8888-10-10-10-10-12-12-12-12-10-10-10-10-8888-10-10-10-10--|x2
Gb|-----------------------------------------------------------------------| 
Db|-----------------------------------------------------------------------|
Ab|-----------------------------------------------------------------------| 
Eb|-----------------------------------------------------------------------|
then pick slide

guitar 1 pre chorus
Eb|-----------------------------------------------------------|  
Bb|-----------------------------------------------------------|
Gb|-----------------------------------------------------------| 
Db|---------------7-------------------------------------------|
Ab|---------------7--(x8)-------------------------------------| 
Eb|--0000--8877---5-------------------------------------------|
     ****  **

chorus
Eb|------------------------------------------------------------|  
Bb|------------------------------------------------------------|
Gb|--5----------------7-------5--------------7-------9---------| 
Db|--5-(x8)--5-(x8)---7-(x16)-5-(x8)-5-------7-(x8)--9-(x8)----|repeat
Ab|--3-------5--------5-------3------5-(x8)--5-------7---------| 
Eb|----------3-----------------------3-------------------------|


riff 3
Eb|---------------------------------|  
Bb|---------------------------------|
Gb|---------------------------------| 
Db|---------------------------------|
Ab|----- 7----9----10-------5-------| 
Eb|---00---00---00-----2p3-----h2---|
(i think)


play verse

play pre chorus

play chorus

bridge "its times like these...."
Eb|-------------------------------|  
Bb|-------------------------------|
Gb|--9--7--5-----4--7--4--7-------| 
Db|--9--7--5--5--4--7--4--7-------|repeat
Ab|--7--5--3--5--2--5--2--5-------| 
Eb|-----------3-------------------|

play riff 1 then riff 2

play chorus and play it 2 more times


outro
Eb|------------------------|  
Bb|------------------------|
Gb|------------------------| 
Db|---2222--2222--22-------| END
Ab|---2222--2222--22-------| 
Eb|---0000--0000--00-------|


I examined how brownsound played it so I'm pretty sure this is correct for the most part.
Tap to rate this tab
 
# A B C D E F G H I J K L M N O P Q R S T U V W X Y Z