Sum 41 - Over My Head Better Off Dead Acoustic tab

-------------------------------------------------------------------------------
			 Over My Head Better Of Dead acoustic - Sum 41
-------------------------------------------------------------------------------

Tuning: standart

you can listen to this version of this song here: http://www.youtube.com/watch?v=zyTK0Eplswk

Intro/Verse:                                                    
e|-----------------------------------------------------------|
B|-----------------------------------------------------------|
G|-----------------------------------------------------------|
D|--------5------9------9-------------7------------4---------|
A|--7--7-----7------10-----10---9--9-----9---5--5-----5------|
E|-----------------------------------------------------------|

after the Intro you play this:
e|-----------------------------------------------------------|
B|-----------------------------------------------------------|
G|-----------5-----------------------------------------------|
D|---2-------5-------5-------4-------------------------------|
A|---2-(4x)--3-(4x)--5-(4x)--5-(4x)--------------------------|
E|---0---------------3-------2-------------------------------|

Pre-Chorus:
e|---------------------------------------------------------------------------------|
B|---------------------------------------------------------------------------------|
G|---------------------------------------------------------------------------------|
D|------2------2---2------4-----4----4-------5-----9----9----------5----9----9-----|
A|--3-3---3-3----3----5-5---5-5----5-----7-7---7-----10---10---7-7---7----10---10--|
E|---------------------------------------------------------------------------------|

Chorus:
e|--------------------------------------------------------------------------|
B|--------------------------------------------------------------------------|
G|------------5-----------------7-------------------------------------------|
D|---2--------5-(8x)---5--------7-(8x)--------------------------------------|
A|---2-(8x)---3--------5-(8x)---5-------------------------------------------|
E|---0-----------------3----------------------------------------------------|

Solo:
e|----3-3-3-3--2-2-2-2--5-5-5-5--3-3-3-3--7-7-7-7--3-3-3-3--2-2--3-3--5-5--7-7-|
B|-----------------------------------------------------------------------------|
G|-----------------------------------------------------------------------------|
D|-----------------------------------------------------------------------------|
A|-----------------------------------------------------------------------------|
E|-----------------------------------------------------------------------------|

Outro:
Git.1                                    Git.2
e|---3--3-0---5--5-0---3--3-0---2-0-2-0--|----------------------------------|
B|---------------------------------------|----------------------------------|
G|---------------------------------------|----------5---------------7-------|
D|---------------------------------------|--2-------5-(4x)--5-------7-(4x)--|
A|---------------------------------------|--2-(4x)--3-------5-(4x)--5-------|
E|---------------------------------------|--0---------------3---------------|

that's it, have fun and please rate ;)
Tap to rate this tab
 
# A B C D E F G H I J K L M N O P Q R S T U V W X Y Z