Sum 41 - Theres No Solution Acoustic tab

-------------------------------------------------------------------------------
			     There's No Solution acoustic - Sum 41
-------------------------------------------------------------------------------

Tuning: standart

you can listen to this version of this song here: http://www.youtube.com/watch?v=UB2IY0DsYeE&NR=1

Intro/Verse:

Git.1                              Git.2 (strumming is not shown)
e|---5-----5-----5-----5--5--6---||-------------------------------------------|
B|------3-----3-----3------------||-------------------------------------------|
G|-------------------------------||---7------3-------------5------------------|
D|-------------------------------||---7------3------3------5------------------|
A|-------------------------------||---5------1------3------3------------------|
E|-------------------------------||-----------------1-------------------------|

Pre-Chorus:
e|--------------------------------------------------------------------------|
B|--------------------------------------------------------------------------|
G|---3-------5-------7---------3-------5-------7----------------------------|
D|---3-(8x)--5-(8x)--7-(16x)---3-(8x)--5-(8x)--7-(16x)----------------------|
A|---1-------3-------5---------1-------3-------5----------------------------|
E|--------------------------------------------------------------------------|

Chorus: (strumming is not shown)
e|---------------------------------------------------------------------------|
B|---------------------------------------------------------------------------|
G|--7---------5----3----7---------5------------------------------------------|
D|--7----3----5----3----7----3----5----7--10---------------------------------|
A|--5----3----3----1----5----3----3----7--10---------------------------------|
E|-------1-------------------1---------5--8----------------------------------|

Bridge:
e|--------------------------------------------------------------------------|
B|--------------------------------------------------------------------------|
G|-10------9-------10------9-------10------12-10-9---10------12------9------|
D|-x-(8x)--x-(8x)--x-(4x)--x-(4x)--x-(4x)--x--x--x---x-(8x)--x-(8x)--x-(16x)|
A|-8-------7-------8-------7-------8-------10-8--7---8-------10------7------|
E|--------------------------------------------------------------------------|

Outro: (strumming is not shown)          /-------  play 4 times  ----------\
                                        /                                   \
e|-------------------------------------|---5-----5-----5-----5--5--6--------|
B|-------------------------------------|------3-----3-----3-----------------|
G|---7---3-------5---7-------5---------|------------------------------------|
D|---7---3---3---5---7---3---5---7-10--|------------------------------------|
A|---5---1---3---3---5---3---3---7-10--|------------------------------------|
E|-----------1-----------1-------5-8---|------------------------------------|

That's all, have fun and please rate :)
Tap to rate this tab
 
# A B C D E F G H I J K L M N O P Q R S T U V W X Y Z