Song name
# A B C D E F G H I J K L M N O P Q R S T U V W X Y Z

Sum 41 - Time For You To Go tab

Song: time for you to go
Band: Sum 41
Album: Screaming Bloody Murder
Intro
e|-----------------------------|x4
B|------------------------0----|
G|------------------------0----|
D|-9-9-9-9-9-9-9-9-9------0----|
A|-7-7-7-7-7-7-7-7-7-----------|
E|-7-7-7-7-7-7-7-7-------------|

e|----------------------------------------------------|
B|----------------------------------------------------|
G|----------------------------------------------------|
D|-------------------------7--7--7--7--7--7--7--7-----|
A|-9--9--9--9--9--9--9--9--5--5--5--5--5--5--5--5--7--|
E|-7--7--7--7--7--7--7--7--------------------------5--|

----------------------------------------------|x2
----------------------------------------------|
----------------------------------------------|
----------------------------------------------|
7--7--7--7--7--7--7--7--7--7--7--7--7--7--7---|
5--5--5--5--5--5--5--4--4--4--4--4--4--4--4---|



e|---------------------------------------------|
B|---------------------------------------------|
G|--9----9----9-9-9----------------------------|
D|--9----9----9-9-9-9----9-9-9-9-9-9-9-----7---|
A|--7----7----7-7-7-9----9-9-9-9-9-9-9-----7---|
E|------------------7----7-7-7-7-7-7-7-----5---|

---------------|--x-x-x-x-x-x-x-x------------------|
---------------|--x-x-x-x-x-x-x-x------------------|
---------------|--x-x-x-x-x-x-x-x------------------|
--7-7-7-7-7-7--|--x-x-x-x-x-x-x-x------------------|
--7-7-7-7-7-7--|--x-x-x-x-x-x-x-x------------------|
--5-5-5-5-5-5--|--x-x-x-x-x-x-x-x------------------|


e|-----------------------------------------------------------|
B|-----------------------------------------------------------|
G|---------------------7----7-7----7-7-7---------------------|
D|--9-----9-----9-9-9--7----7-7----7-7-7-7----7-7----7-7-7-2-|
A|--9-----9-----9-9-9--5----5-5----5-5-5-7----7-7----7-7-7-2-|
E|--7-----7-----7-7-7--------------------5----5-5----5-5-5-0-|

-------------------------------------------------------|
-------------------------------------------------------|
----------------------------------7----7-7----7-7-7----|
---2-2----2-2-2-9----9-9----9-9-9-7----7-7----7-7-7-7--|
---2-2----2-2-2-9----9-9----9-9-9-5----5-5----5-5-5-7--|
---0-0----0-0-0-7----7-7----7-7-7-------------------5--|

e|---------------------------------------------|
B|---------------------------------------------|
G|---------------------------------------------|
D|--7-7----7-7-7-2----2-2----2-2-2-2-----------|
A|--7-7----7-7-7-2----2-2----2-2-2-2-----------|
E|--5-5----5-5-5-0----0-0----0-0-0-0-----------|
_______________________________________________________________________________
e|--------------------------------------------------------------------------|
B|--------------------------------------------------------------------------|
G|--------------------------------------------------------------------------|
D|--9----9-9-----------9----9-9--------9----9-9-------7----7-7-2----2-------|
A|--9----9-9-----------9----9-9--------9----9-9-------7----7-7-2----2-------|
E|--7----7-7-----------7----7-7--------7----7-7-------5----5-5-0----0-------|

SOLO
e|-----------------------------------------------------|
B|-----------------------------------------------------|
G|--9----9-9-9-9-9----7----------7---7--------------7--|
D|----------------------9-9----9---9-----9----7-9-9----|
A|-----------------------------------------------------|
E|-----------------------------------------------------|

---------------------------------------------------------|
---------------------------------------------------------|
--9-7--------------------7-7-9-7---7-7--9-7--------------|
------9----9------7-7-9----------9----------9------------|
--------------7-9----------------------------------------|
----------------------------------------------7----7-7---|


e|----------------------------------------------------------------|
B|----------------------------------------------------------------|
G|---9----9-9-11----11--11--13----13-13-14----14-14--16-----------|
D|----------------------------------------------------------------|
A|----------------------------------------------------------------|
E|----------------------------------------------------------------|
Tap to rate this tab
# A B C D E F G H I J K L M N O P Q R S T U V W X Y Z