Song name
# A B C D E F G H I J K L M N O P Q R S T U V W X Y Z

Sum 41 - Crazy Amanda Bunkface tab

Artist:Sum 41
Song:Crazy Amanda Bunkface
Album:All Killer No Filler
Tabbed by:Duncan S/reelbigfish432

I don't have the book but I'm very sure this is right. And it is in drop d you cant play 
properly otherwise.

There are 2 guitars, Brownsound (guitar 1) and Deryck (guitar 2).

Legend:
\-slide down
/-slide up
pm-- and .-palm mute
x-string mute

Intro:
Guitar 1
 pm-----------------------------------|
E|------------------------------------|
B|------------------------------------|
G|------------------------------------|
D|------------------------------------|
A|-5-5-5-5-5-5-5-5/7-7-7-7-7-7-7-7/---|
D|-5-5-5-5-5-5-5-5/7-7-7-7-7-7-7-7/---|
   . . . . . . . . . . . . . . . .

 pm------------------------------------------|
E|-------------------------------------------|
B|-------------------------------------------|
G|-------------------------------------------|
D|-------------------------------------------|x2
A|-9-9-9-9-9-9-9-9/10-10-10-10-10-10-10-10---|
D|-9-9-9-9-9-9-9-9/10-10-10-10-10-10-10-10---|
   . . . . . . . .  .  .  .  .  .  .  .  .

 PM---    ---    ---      ---     ---     ---     ---     ---
E|---------------------------------------------------------------|
B|---------------------------------------------------------------|
G|-----------------------------------------------------5-------5-|
D|-----5-------5-------5-------5-------3-------3--5-5--5--5-5--5-|
A|-5-5-5--5-5--5--5-5--5--5-5--5--3-3--3--3-3--3--3-3--3--3-3--3-|
D|-5-5-5--5-5--5--4-4--4--4-4--4--3-3--3--3-3--3-----------------|
   . .    . .     . .     . .     . .     . .     . .     . .

 PM---    ---    ---     ---    --------------------|
E|--------------------------------------------------|
B|--------------------------------------------------|
G|--------------------------------------------------|
D|-----5------5-------5------5------------------3---|
A|-5-5-5--5-5-5--5-5--5--5-5-5--3-3-3-3-3-3-3-333---|
D|-5-5-5--5-5-5--4-4--4--4-4-4--3-3-3-3-3-3-3-333---|
   . .    . .    . .     . .    . . . . . . . ..

1st Chorus:
Both Guitars
E|----------------------|
B|----------------------|
G|-5-------7--7-7-7-7-7-|
D|-5--5-5--7--7-7-7-7-7-|x4
A|-3--5-5--5--5-5-5-5-5-|
D|----5-5---------------|

Pre-Verse:
Both Guitars
E|----------------------------|
B|----------------------------|
G|----------------------------|
D|-5-5-5-5-4--5-5-5-5-5-5-5-5-|
A|-5-5-5-5-4--5-5-5-5-5-5-5-5-|
D|-5-5-5-5-4--5-5-5-5-5-5-5-5-|

E|--------------------------|
B|--------------------------|
G|-5-5-5-5-5-5-5-5-5--7-7-7-|
D|-5-5-5-5-5-5-5-5-5--7-7-7-|x2
A|-3-3-3-3-3-3-3-3-3--5-5-5-|
D|--------------------------|

Verse 1:
Guitar 1
E|-------------------------------------------------|
B|-------------------------------------------------|
G|-------------------------------------------------|
D|-------------------------------------------------|
A|-------------------------------------------------|
D|-5-5-5-5-5-5-5-5-7-7-7-7-7-7-7-7-9-9-9-9-9-9-9-9-|
 |
 |Guitar 2
E|-------------------------------------------------|
B|-------------------------------------------------|
G|-------------------------------------------------|
D|-\-----------------------------------------------|
A|-\-----------------------------------------------|
D|-\-----------------------------------------------|

Guitar 1
E|-------------------------|
B|-------------------------|
G|-------------------------|
D|-------------------------|
A|-------------------------|
D|-10-10-10-10-10-10-10-10-|
 |                         |
 |Guitar 2                 |
E|-------------------------|
B|-------------------------|
G|-------------------------|
D|-------------------------|
A|-------------------------|
D|-------------------------|

Guitar 1
E|-------------------------------------------------|
B|-------------------------------------------------|
G|-------------------------------------------------|
D|-------------------------------------------------|
A|-------------------------------------------------|
D|-5-5-5-5-5-5-5-5-7-7-7-7-7-7-7-7-9-9-9-9-9-9-9-9-|
 |                                                 |
 |Guitar 2                                         |
E|-------------------------------------------------|
B|-------------------------------------------------|
G|-------------------------------------------------|
D|-0-0-0-0-0-0-0-0-5-5-5-5-5-5-5-5-4-4-4-4-4-4-4-4-|
A|-------------------------------------------------|
D|-------------------------------------------------|

Guitar 1
E|-------------------------|
B|-------------------------|
G|-------------------------|
D|-------------------------|
A|-------------------------|
D|-10-10-10-10-10-10-10-10-|
 |                         |
 |Guitar 2                 |
E|-------------------------|
B|-------------------------|
G|-------------------------|
D|--5--5--5--5--5--5--5--5-|
A|-------------------------|
D|-------------------------|

Both Guitars
E|------------------------------------|
B|------------------------------------|
G|----------------------------5-5-5-5-|
D|-5-5-5-5--5-5-5-5--3-3-3-3--5-5-5-5-|
A|-5-5-5-5--5-5-5-5--3-3-3-3--3-3-3-3-|
D|-5-5-5-5--4-4-4-4--3-3-3-3----------|

E|---------------------------------|
B|---------------------------------|
G|---------------------------------|
D|-5-5-5-5--5-5-5-5--3-x-3-3-x-3-3-|
A|-5-5-5-5--5-5-5-5--3-x-3-3-x-3-3-|
D|-5-5-5-5--4-4-4-4--3-x-3-3-x-3-3-|

2nd Chorus:
Guitar 1
E|----------------------|
B|----------------------|
G|-5------11-1111111111-|
D|-5--5-5---------------|
A|-3--5-5--9--9-9-9-9-9-|
D|----5-5---------------|
 |                      |
 |Guitar 2              |x4
E|----------------------|
B|----------------------|
G|-5-------7--7-7-7-7-7-|
D|-5--5-5--7--7-7-7-7-7-|
A|-3--5-5--5--5-5-5-5-5-|
D|----5-5---------------|

Interlude:
Both Guitars
 PM-----    -----    -----    ------------|
E|----------------------------------------|
B|----------------------------------------|
G|----------------------------------------|
D|-------2--------2--------2--------4-5---|x2
A|-0-2-0-2--0-2-0-2--0-2-0-2--0-2-0-4-5---|
D|-0-2-0-2--0-2-0-2--0-2-0-2--0-2-0-4-5---|
   . . .    . . .    . . .    . . .

Guitar 1
 pm-----    -----      -----  ------------|
E|-------3\-------3\-------3\-------------|
B|-------3\-------3\-------3\-------------|
G|- --------------------------------------|
D|----------------------------------4-5---|
A|-0-2-0----0-2-0----0-2-0----0-2-0-4-5---|
D|-0-2-0----0-2-0----0-2-0----0-2-0-4-5---|
 | . . .    . . .    . . .    . . .     |
 |Guitar 2                              |
E|--------------------------------------|
B|--------------------------------------|
G|--------------------------------------|
D|-------2--------2--------2--------4-5-|
A|-0-2-0-2--0-2-0-2--0-2-0-2--0-2-0-4-5-|
D|-0-2-0-2--0-2-0-2--0-2-0-2--0-2-0-4-5-|
   . . .    . . .    . . .    . . .

Guitar 1
 pm-----    -----      -----  -----      ------------|
E|-------3\-------3\-------3\------------------------|
B|-------3\-------3\-------3\------------------------|
G|- -------------------------------------------------|
D|----------------------------------4-5--------4-5---|
A|-0-2-0----0-2-0----0-2-0----0-0-0-4-5--0-0-0-4-5---|
D|-0-2-0----0-2-0----0-2-0----0-0-0-4-5--0-0-0-4-5---|
 | . . .    . . .    . . .    . . .      . . .
 |Guitar 2
E|-------------------------------------------------|
B|-------------------------------------------------|
G|-------------------------------------------------|
D|-------2--------2--------2--------4-5--------4-5-|
A|-0-2-0-2--0-2-0-2--0-2-0-2--0-0-0-4-5--0-0-0-4-5-|
D|-0-2-0-2--0-2-0-2--0-2-0-2--0-0-0-4-5--0-0-0-4-5-|
   . . .    . . .    . . .    . . .      . . .

Guitar 1
 pm-----
E|----------------------------|
B|----------------------------|
G|----------------------------|
D|-------4-5--5-5-5-5-5-5-5-5-|
A|-0-0-0-4-5--5-5-5-5-5-5-5-5-|
D|-0-0-0-4-5--5-5-5-5-5-5-5-5-|
 | . . .                      |
 |Guitar 2                    |
E|----------------------------|
B|----------------------------|
G|----------------------------|
D|-------4-5--5-5-5-5-5-5-5-5-|
A|-0-0-0-4-5--5-5-5-5-5-5-5-5-|
D|-0-0-0-4-5--5-5-5-5-5-5-5-5-|
   . . .

Guitar 1
E|------------------------------------------------|
B|------------------------------------------------|
G|-7--7--7--7--7--7--7--7--9--9--9--9--9--9--9--9-|
D|------------------------------------------------|
A|-5--5--5--5--5--5--5--5--7--7--7--7--7--7--7--7-|
D|------------------------------------------------|
 |                                                |
 |Guitar 2                                        |
E|------------------------------------------------|
B|------------------------------------------------|
G|------------------------------------------------|
D|-0--0--0--0--0--0--0--0--2--2--2--2--2--2--2--2-|
A|-0--0--0--0--0--0--0--0--2--2--2--2--2--2--2--2-|
D|-0--0--0--0--0--0--0--0--2--2--2--2--2--2--2--2-|

Guitar 1
E|-------------------------------------------------|
B|-------------------------------------------------|
G|-16-16-16-16-16-16-16-16-14-14-14-12-12-12-12-12-|
D|-------------------------------------------------|
A|-14-14-14-14-14-14-14-14-12-12-12-10-10-10-10-10-|
D|-------------------------------------------------|
 |                                                 |
 |Guitar 2                                         |x3
E|-------------------------------------------------|
B|-------------------------------------------------|
G|-------------------------------------------------|
D|-5--5--5--5--5--5--5--5--7--7--7--7--7--7--7--7--|
A|-5--5--5--5--5--5--5--5--7--7--7--7--7--7--7--7--|
D|-5--5--5--5--5--5--5--5--7--7--7--7--7--7--7--7--|

Guitar 1
E|------------------------------------------------|
B|------------------------------------------------|
G|-7--7--7--7--7--7--7--7--9--9--9--9--9--9--9--9-|
D|------------------------------------------------|
A|-5--5--5--5--5--5--5--5--7--7--7--7--7--7--7--7-|
D|------------------------------------------------|
 |                                                |
 |Guitar 2                                        |
E|------------------------------------------------|
B|------------------------------------------------|
G|------------------------------------------------|
D|-0--0--0--0--0--0--0--0--2--2--2--2--2--2--2--2-|
A|-0--0--0--0--0--0--0--0--2--2--2--2--2--2--2--2-|
D|-0--0--0--0--0--0--0--0--2--2--2--2--2--2--2--2-|

Guitar 1
E|----------------------------------------------|
B|----------------------------------------------|
G|-16-16-16-16-16-16-16-16-14-12\-14-12\-14-12\-|
D|----------------------------------------------|
A|-14-14-14-14-14-14-14-14-12-10\-12-10\-12-10\-|
D|----------------------------------------------|
 |                                              |
 |Guitar 2                                      |
E|----------------------------------------------|
B|----------------------------------------------|
G|----------------------------------------------|
D|-5--5--5--5--5--5--5--5--7--7\--7--7\--7--7\--|
A|-5--5--5--5--5--5--5--5--7--7\--7--7\--7--7\--|
D|-5--5--5--5--5--5--5--5--7--7\--7--7\--7--7\--|

Guitar 1
E|-------------------------|
B|-------------------------|
G|-14-14-14-14-14-14-14-14-|
D|-------------------------|
A|-12-12-12-12-12-12-12-12-|
D|-------------------------|
 |                         |
 |Guitar 2                 |x2
E|-------------------------|
B|-------------------------|
G|-------------------------|
D|-7--7--7--7--7--7--7--7--|
A|-7--7--7--7--7--7--7--7--|
D|-7--7--7--7--7--7--7--7--|

Final Chorus:
Guitar 1
E|----------------------|
B|----------------------|
G|11--9-9-13-1313131313-|
D|----------------------|
A|-9--7-7-11-1111111111-|
D|----------------------|
 |                      |
 |Guitar 2              |x4
E|----------------------|
B|----------------------|
G|-7-------9--9-9-9-9-9-|
D|-7--7-7--9--9-9-9-9-9-|
A|-5--7-7--7--7-7-7-7-7-|
D|----7-7---------------|

Both Guitars
E|----|
B|----|
G|----|
D|-7\-|
A|-7\-|
D|-7\-|

And thats it, it might look a bit confusing but its easy to work out. The spacings not 
perfect but oh well. Comments and improvements are welcome. Enjoy!
Tap to rate this tab
 
# A B C D E F G H I J K L M N O P Q R S T U V W X Y Z