Song name
# A B C D E F G H I J K L M N O P Q R S T U V W X Y Z

Sum 41 - Baby You Dont Wanna Know tab

SONG: Baby You Don't Wanna Know
ARTIST: Sum 41
ALBUM: Screaming Bloody Murder
Tuning: Standard (EADGBe)
This is my first tab so be kind and message me if you would find any mistakes


Intro x6
e|-------------------------------------------------------------------------------|
B|-1--3-3--1--3---1--3--1--3--1--3--1--------------------------------------------|
G|-0--2-2--0--2---0--2--0--2--0--2--0--2-----------------------------------------|
D|-------------------------------------2-----------------------------------------| 
A|-------------------------------------------------------------------------------|
E|-------------------------------------------------------------------------------|

Verse x1
e|-------------------------------------------------------------------------------|
B|-1--3-3--1--3---1--3--1--3--1--3--1------1--3-3--1--3---1--3--1--3--1--3--1----|
G|-0--2-2--0--2---0--2--0--2--0--2--0--2---0--2-2--0--2---0--2--0--2--0--2--0--2-|
D|-------------------------------------2---------------------------------------2-|
A|-------------------------------------------------------------------------------|
E|-------------------------------------------------------------------------------|

e|-------------------------------------------------------------------------------|
B|-------------------------------------------------------------------------------|
G|-------------------------------------------------------------------------------|
D|--5--5-5-5--5-5-5--5-5-5-5-5---------------------------------------------------|
A|--5--5-5-5--5-5-5--5-5-5-5-5---------------------------------------------------|
E|--3--3-3-3--3-3-3--3-3-3-3-3---------------------------------------------------|

e|-------------------------------------------------------------------------------|
B|-1--3-3--1--3---1--3--1--3--1--3--1------1--3-3--1--3---1--3--1--3--1--3--1----|
G|-0--2-2--0--2---0--2--0--2--0--2--0--2---0--2-2--0--2---0--2--0--2--0--2--0--2-|
D|-------------------------------------2---------------------------------------2-|
A|-------------------------------------------------------------------------------|
E|-------------------------------------------------------------------------------|

e|----------------------------------------|--------------------------------------|
B|-1--3-3--1--3---1--3--1--3--1--3--1-----|--------------------------------------|
G|-0--2-2--0--2---0--2--0--2--0--2--0--2--|--------------------------------------|
D|-------------------------------------2--|--5--5-5-5--5-5-5--5-5-5-5-5----------|
A|----------------------------------------|--5--5-5-5--5-5-5--5-5-5-5-5----------|
E|----------------------------------------|--3--3-3-3--3-3-3--3-3-3-3-3----------|

Chorus x4
e|---------------------------------------------------------------------------|
B|---------------------------------------------1--3-3--1--3--1---------------|
G|-2--2-2-2-2-----5--5-5-5-5-------------------0--2-2--0--2--0--2------------|
D|-2--2-2-2-2-----5--5-5-5-5-----5-5-5-5-5----------------------2------------|
A|-0--0-0-0-0-----3--3-3-3-3-----5-5-5-5-5-----------------------------------|
E|-------------------------------3-3-3-3-3-----------------------------------|

Intro x1
e|---------------------------------------------------------------------------|
B|-1--3-3--1--3---1--3--1--3--1--3--1----------------------------------------|
G|-0--2-2--0--2---0--2--0--2--0--2--0--2-------------------------------------|
D|-------------------------------------2-------------------------------------| 
A|---------------------------------------------------------------------------|
E|---------------------------------------------------------------------------|

e|---------------------------------------------------------------------------|
B|---------------------------------------------------------------------------|
G|-5--7-7--5--7---5--7-------------------------------------------------------|
D|-5--7-7--5--7---5--7-------------------------------------------------------|
A|---------------------------------------------------------------------------|
E|---------------------------------------------------------------------------|

Verse x1
e|-------------------------------------------------------------------------------|
B|-1--3-3--1--3---1--3--1--3--1--3--1------1--3-3--1--3---1--3--1--3--1--3--1----|
G|-0--2-2--0--2---0--2--0--2--0--2--0--2---0--2-2--0--2---0--2--0--2--0--2--0--2-|
D|-------------------------------------2---------------------------------------2-|
A|-------------------------------------------------------------------------------|
E|-------------------------------------------------------------------------------|

e|-------------------------------------------------------------------------------|
B|-------------------------------------------------------------------------------|
G|-------------------------------------------------------------------------------|
D|--5--5-5-5--5-5-5--5-5-5-5-5---------------------------------------------------|
A|--5--5-5-5--5-5-5--5-5-5-5-5---------------------------------------------------|
E|--3--3-3-3--3-3-3--3-3-3-3-3---------------------------------------------------|

e|-------------------------------------------------------------------------------|
B|-1--3-3--1--3---1--3--1--3--1--3--1------1--3-3--1--3---1--3--1--3--1--3--1----|
G|-0--2-2--0--2---0--2--0--2--0--2--0--2---0--2-2--0--2---0--2--0--2--0--2--0--2-|
D|-------------------------------------2---------------------------------------2-|
A|-------------------------------------------------------------------------------|
E|-------------------------------------------------------------------------------|

e|----------------------------------------|--------------------------------------|
B|-1--3-3--1--3---1--3--1--3--1--3--1-----|--------------------------------------|
G|-0--2-2--0--2---0--2--0--2--0--2--0--2--|--------------------------------------|
D|-------------------------------------2--|--5--5-5-5--5-5-5--5-5-5-5-5----------|
A|----------------------------------------|--5--5-5-5--5-5-5--5-5-5-5-5----------|
E|----------------------------------------|--3--3-3-3--3-3-3--3-3-3-3-3----------|

Chorus X2
e|---------------------------------------------------------------------------|
B|---------------------------------------------1--3-3--1--3--1---------------|
G|-2--2-2-2-2-----5--5-5-5-5-------------------0--2-2--0--2--0--2------------|
D|-2--2-2-2-2-----5--5-5-5-5-----5-5-5-5-5----------------------2------------|
A|-0--0-0-0-0-----3--3-3-3-3-----5-5-5-5-5-----------------------------------|
E|-------------------------------3-3-3-3-3-----------------------------------|


Solo:
e|---------------------------------------------------------------------------|
B|----------------------13----13b(15)r13----13----13b(15)r13-----------------|
G|-14-14-14-14-14-14-14---14--------------14---14----------------------------|
D|---------------------------------------------------------------------------|
A|---------------------------------------------------------------------------|
E|---------------------------------------------------------------------------|

e|----------15-15-15-16-15---------------------------------------------------|
B|---13--------------------13------------------------------------------------|
G|-14--14---------------------14-12-14---------------------------------------|
D|---------------------------------------------------------------------------|
A|---------------------------------------------------------------------------|
E|---------------------------------------------------------------------------|

e|--------------------------------------------------------------------------------|
B|--------------------------------------------------------------------------------|
G|--------------------------------------------------------------------------------|
D|-----------------------------------------------------12-12-12-13-12-------------|
A|-12-12-15-12-15b(17)r15-12-15-12-15b(17)r15-12-15-12----------------15-12-10-12~|
E|--------------------------------------------------------------------------------|

Bridge: 
e)-------------------------------------------------------------------------|
B)-------------------------------------------------------------------------|
G)-------------------------------------------------------------------------|
D)--------------------------------3-3-3-3-3-3-3-3--------------------------|
A)--------------------------------3-3-3-3-3-3-3-3--------------------------|
E)--5~-5-4~-4-3~-3-2~-2-1~--------1-1-1-1-1-1-1-1--------------------------|

Chorus X8
e|---------------------------------------------------------------------------|
B|---------------------------------------------1--3-3--1--3--1---------------|
G|-2--2-2-2-2-----5--5-5-5-5-------------------0--2-2--0--2--0--2------------|
D|-2--2-2-2-2-----5--5-5-5-5-----5-5-5-5-5----------------------2------------|
A|-0--0-0-0-0-----3--3-3-3-3-----5-5-5-5-5-----------------------------------|
E|-------------------------------3-3-3-3-3-----------------------------------|

e|---------|
B|---------|
G|--7------|
D|--7------|
A|--5------|
E|---------|

| ~   vibrato
| b   Bend
| br  Bend release
Tap to rate this tab
 
# A B C D E F G H I J K L M N O P Q R S T U V W X Y Z