Song name
# A B C D E F G H I J K L M N O P Q R S T U V W X Y Z

Sum 41 - Tht tab

Help us improve GuitareTab! Take a short survey!
Hi , its me again. I'm kinda pissed off cos my tab for the Hell Song (which I
must add was the first tab for that song on the net) has had its name changed on
this site, and is now Hell Song ver 5 - which i'm annoyed about, cos i am no
longer the first person to tab it :@

Here is the FIRST version of T.H.T on this site

\- slide down fretboard
/-slide up fretboard

Intro
------------------------------------------------
------------------------------------------------
------------------------------------------------
--7-7-7/-10-10-10-------------------------------
--5-5-5/-8--8--8----7---------------------------
--------------------5---------------------------
Verse
------------------------------------------------
------------------------------------------------
------------------------------------------------
---7-----10---9---------------------------------
---5-----8----7--10-----------------------------
-----------------8------------------------------

Chorus x2
------------------------------------------------
------------------------------------------------
------------------------------------------------
------------------7-7-7/-10-10\-7-7-7-10-10-----
----5------8------5-5-5/-8---8\-5-5-5/8--8------
----3------6------------------------------------

x1
---------------------------------------------------------
---------------------------------------------------------
---------------------------------------------------------
-------------10----9---------7-7-7/-10-10\-7-7-7-10-10\-7
----5----7---8-----7---5--7--5-5-5/-8---8\-5-5-5/8--8-\-5
----3----5-------------3--5------------------------------
Related for Tht tab