Song name
# A B C D E F G H I J K L M N O P Q R S T U V W X Y Z

Sum 41 - Theres No Solution tab

There's No Solution

Key: F#

Tuning: Standard EADGBe

Chords used:
Ebm -  x68876
F# -   244322
C# -   x46664
B -    x24442
C#/F - 143xxx
Bbm -  x13321
G#m -  466444


Intro:

Dave: Until Verses
e|-6----6----6----6--6--6--7-|
B|----7----7----7------------|
G|---------------------------|
D|---------------------------| x8
A|---------------------------|
E|---------------------------|

Cone:
   B   C#
G|---|----|
D|---|----|
A|-2-|-4--|
E|---|----|


   Ebm     B     F#   C#/F
G|------|------|----|------|
D|-1----|------|----|----3-|
A|----1-|-2--2-|----|------|
E|------|------|-2--|-1----|


Verse 1:
Ebm
  Maybe nothing else
     B
will ever be so clear
F#                C#/F
  Or maybe that's only my fear
Ebm
  If just for one day
  B
I wish I could disappear
F#             C#/F
  Just take me far from here


Refrain 1:
B           C#               Ebm
  Maybe I'd find out nothing new
B           C#               Ebm
  Maybe I'd end up just like you


Dave: Refrains
      Q.      Q.      E   E     Q.     Q.     E   E
E||--------------------------|-----------------------|
B||--11------11------11--12--|--9------9------9--12--|
G||--------------------------|-----------------------|
D||---8-------8-------8---9--|--6------6------6---9--|
A||--------------------------|-----------------------|
E||--------------------------|-----------------------|

  E  E  E  E  E  E  E  E    E  E  E  E  E  E  E E
--------------------------|---------------------------|
--4--4--4--9--9--9--7--7--|--7--7--7--6--6--6--4--4S--|
--------------------------|---------------------------|
--1--1--1--6--6--6--4--4--|--4--4--4--3--3--3--1--1S--|
--------------------------|---------------------------|
--------------------------|---------------------------|

   Q.      Q.      E   E     Q.     Q.      E   E
--------------------------|------------------------|
--11------11------11--12--|--9------9------11--12--|
--------------------------|------------------------|
---8-------8-------8---9--|--6------6-------8---9--|
--------------------------|------------------------|
--------------------------|------------------------|

   E   E   E   E   E   E   E  E      E   E   E   E   E  E E  E
----------------------------------|-------------------------------||
--11--11--11--11--11--11--11--11--|--11--11--11--11--11-----------||
----------------------------------|-------------------------------||
---8---8---8---8---8---8---8---8--|---8---8---8---8---8-----------||
----------------------------------|-------------------------------||
----------------------------------|-------------------------------||


Chorus:
             Ebm   F#
There's no solution
        C#
Give me truth to
      B
my conviction
             Ebm   F#
Is my own confusion
     C#
Reality or fiction
Bbm    C#
  Am I out of my mind


Interlude:

Deryck: Ebm--B--F#--C#/F

Dave: Same for Intro


Verse 2:
Ebm
  This constant pressure
           B
that keeps hanging over me
F#            C#/F
  It makes me feel so empty
Ebm
  It's more than anything
     B
that I could ever be
F#
  What else could
    C#/F
you take from me


Refrain 2:
B
  It's getting
C#          Ebm
harder to relate
B               C#
  Don't want to make
            Ebm
the same mistakes


(Repeat Chorus)


Bridge:
B               C#
  It took me so long to
find out it's right
Ebm      C#/F     F#
There in front of me
    G#m      B
Too close to see
                   B
What I thought was true
            Bbm
I see right through
               C#
what's killing you


(Repeat Chorus)


Outro:
Ebm
  Maybe nothing else
     B
will ever be so clear
F#                C#/F
  Or maybe that's only my fear
Ebm
  If just for one day I
     F#
wish I could disappear
(Am I out of my mind)
C#             Bbm C#       Ebm
  Just take me far from here

Maybe I'd find out nothing new
Maybe I'd end up just like you
(Am I out of my mind)
Tap to rate this tab
 
# A B C D E F G H I J K L M N O P Q R S T U V W X Y Z