Song name
# A B C D E F G H I J K L M N O P Q R S T U V W X Y Z

Sum 41 - Count Your Last Blessings chords

Highlighted       Show chord diagrams
Count Your Last Blessings

Key: D

Tuning: Standard eADGBe

Chords used:
Bm - x24432
A -  x02220
Em - 022000
F# - 244322
G -  320033


Intro:

Piano: Until Verses
        Bm               A              Em              G
e|-14--15-17--14-|-14--15-17--14-|-14--14-17--15-|-12--14-15--14-|
B|---------------|---------------|---------------|---------------|
G|---------------|---------------|---------------|---------------|
D|---------------|---------------|---------------|---------------|
A|-14------------|-12------------|---------------|---------------|
E|---------------|---------------|-12------------|-15------------|


Bm
Last call for regret and defeat
   A
To finish the bottle full of empty dreams
Em
Punch-drunk headed straight out of line
 G
Another excuse with no alibi
Bm
Hitchin on the road of decline
     A
With no name streets and no vital signs
  Em
I pissed away the best of me and
G
  No one can help me!


Refrain:
              Bm
e|-------------------------------|
B|-------------------------------|
G|-----4-4-----------------------|
D|---------2-2-4-4-5-5-4-4-2-2-4-|
A|-2-2---------------------------|
E|-------------------------------|


Chorus:
Bm
Misery's best friend
D
Dead beat on a dead-end
G                  F#
  A bag full of regrets
and I'm coming clean
Bm
   The self-elect
D
Resident reject
G
   A bad habit
         F#
Don't forget it you better
Bm
Count your last blessings
  F#
i fell off the wagon
    G
i'm chasing six feet
        F#
And now I'm running out of time


(Repeat Intro)


Verse 2:
   Bm
My hands are tied
And nailed to the cross
    A
I'm looking for all the composure I lost
    Em
I'm petulant with a bad attitude
  G
A poster-child vision of wasted youth
  Bm
I dodged the book and found the key
  A
I can't say the same for dignity
  Em
I pissed away the best of me and
G
  No one can help me


(Repeat Refrain and chorus)


Interlude: Bm - G - D - F#


Bridge:
Bm           G
   My own enemy
                 D
I don't hear you now
             F#
Perfect tragedy
               Bm
God bless us denial
               G
    My own enemy
                 D
I don't hear you now
             F#
Perfect tragedy
               Bm
God bless us denial


(Repeat Chorus twice)


End on Bm then Repeat Piano Intro twice
Tap to rate this tab
 
# A B C D E F G H I J K L M N O P Q R S T U V W X Y Z