Song name
# A B C D E F G H I J K L M N O P Q R S T U V W X Y Z

Sum 41 - Open Your Eyes chords

Highlighted       Show chord diagrams
Open Your Eyes

Key: G#

Tuning: Standard EADGBe

Chords used:
Fm - 133111
C# - x46664
G# - 466544
Eb - x68886


Intro:
Fm
Lately
I'm not quite myself
C#
Maybe
I do need some help
G#
  Just my confusion
Eb
  Trust my delusion
Fm
Don't you
Regret you met me
C#
Go through
These steps to get me
G#
  Back to where we start
Eb
  Fore I fall apart


Verse 1:
           Fm
If I could black out
It'd become so clear
 C#
Standing face-to-face
with everything I fear
G#
Watch so closely
     Eb
But still I don't see
   Fm
As bad as it seems
A piece of mind I steal
   C#
An ordinary life
But consequences real
    G#                  Eb
I'm past the point of reality


Dave: While Doing Verses
     Fm         C#       G#    Eb
e|---------|-----------|-----|-----|
B|---------|-----------|-----|-----|
G|----3--5-|----3--6-5-|-6-5-|-6-5-|
D|-3-------|-3---------|-----|-----|
A|---------|-----------|-----|-----|
E|---------|-----------|-----|-----|

     Fm         C#        G#          Eb
e|---------|---------|---------|---------------|
B|-6-6-6-6-|-6-6-6-6-|-4-4-4-4-|---------------|
G|-5-5-5-5-|-5-5-5-5-|-3-3-3-3-|-13------------|
D|---------|---------|---------|--x-pick-slide-|
A|---------|---------|---------|-11------------|
E|---------|---------|---------|---------------|


Chorus:
           Fm
This isn't me
This isn't you
When it's just
C#
everything we do
         G#
Till you open
up your eyes
          Eb
And understand
this isn't real
           Fm
This isn't me
This isn't you
        C#
This is everything
but true
        G#
Till we come
to realize
             Eb
It's what we put
each other through


Verse 2:
            Fm
It's like a bad dream
Coming all so true
C#
Leaving me with
nothing else left to do
G#
Now so helpless
    Eb
I'm not so selfish
Tell me
Fm
How does it feel to
have a face like that
C#
How does it feel to be
replaced like that
G#
Now so faceless
   Eb
Do you still feel


(Repeat Chorus)


Bridge:
Fm     C#                    Fm
  It's hard to believe right now
C#
This seem to be real
Fm      C#
  Still phasing by this time
Fm  C#           (hold) (pickslide)
  So why can't I wake up


Dave: Lead Solo x2
              Fm                                 C#
    Q       Q       Q       Q          Q       Q       Q       Q
E|----------------------------------|----------------------------------|
B|----------------------------------|----------------------------------|
G|--------------------------15b~----|--17b~----18b~----17b~----18b~----|
D|--15b~----17b~----18b~------------|----------------------------------|
A|----------------------------------|----------------------------------|
E|----------------------------------|----------------------------------|

                          G#
               Weird Effects
               PM            PM PMPM PM PM PM PM PM PM PM
     E    S S S  S             S  S S  S  S  S  S  S  S  S
e|----------------------------------------------------------|
B|--------------11------------11-11-9--9--9--8--8--9--9--9--|
G|--20b~--L-L-L--L-------------L--L-L--L--L--L--L--L--L--L--|
D|----------------------------------------------------------|
A|----------------------------------------------------------|
E|----------------------------------------------------------|

                        Eb
    PM PM PM PM PM PM PM PM PM PM PM PM PM PM PM PM
    S  S  S  S  S  S  S  S  S  S  S  S  S  S  S  S
e|--------------------------------------------------||
B|--8--8--8--6--6--8--8--8--6--6--4--4--4--4--4--4--||
G|--------------------------------------------------||
D|--------------------------------------------------||
A|--------------------------------------------------||
E|--------------------------------------------------||


(Repeat Chorus)
Tap to rate this tab
# A B C D E F G H I J K L M N O P Q R S T U V W X Y Z