Song name
# A B C D E F G H I J K L M N O P Q R S T U V W X Y Z

Sum 41 - With Me chords

Highlighted       Show chord diagrams
With Me

Key: E

Tuning: Standard EADGBe

Chords used:
E -   022100
B -   x24442
C#m - 466544
C -   x35553 or x32010
A -   x02220


Intro: Until Verses
        E              B            C#m              A
e|-----------0-|----------0----|----------0-|-------------0----|
B|------0------|-----0-------0-|-----0------|-----0----4-----0-|
G|-1-1-----1---|-4-4----4------|-6-6----6---|-2-2----2---------|
D|-2-2-----2---|-4-4----4------|-6-6----6---|-2-2----2---------| x2
A|-2-2-----2---|-2-2----2------|-4-4----4---|-0-0----0---------|
E|-0-0-----0---|---------------|------------|------------------|


Verse 1:
E                   B
  I don't want this moment
C#m        A
   to ever end
E                    B
  where everything's nothing
    C#m    A
without you
E                  B
  I'd wait here forever just to
C#m            A
   to see you smile
           E
cause it's true
     B           C#m A
I am nothing without you


Guitar 2: At "I'd wait here forever..."
   E    B    C#m   A
e|-12-|-11-|--9--|-7--|
B|----|----|-----|----|
G|----|----|-----|----|
D|----|----|-----|----|
A|----|----|-----|----|
E|----|----|-----|----|


Refrain 1:
           C#m
through it all
                A
I've made my mistakes
              E
I stumble and fall
                 B
but I mean these words


Chorus:
              C#m
I want you to know
     A
with everything I
               E
won't let this go
B               C
these words are my
          C#m
heart and soul
          A
I'll hold on to this
           E
moment you know
      B
cause I'd bleed my
C            C#m
heart out to show
       A
that i won't let go


Interlude: E


(Repeat Intro once)


Verse 2:
E                   B
 thoughts read are spoken
C#m            A
   forever and now
E              B
 and pieces of memories
     C#m    A
fall to the ground
E                 B
  I know that I didn't have so
C#m                 A
   I won't let this go
           E
cause it's true
     B           C#m A
I am nothing without you


Refrain 2: Fast Palm mute
          C#m
all the streets
                A
where I walked alone
                E
with nowhere to go
                B
have come to an end


(Repeat Chorus)


Interlude: E


Bridge:
A                  E
  in front of your eyes
                   B
it falls from the skies
                C#m
when you don't know
            B          A
what you're looking to find
(Repeat)

              A
What will you find
              E
What will you find
              B
What will you find
              C#m B
What will you find


A--E--B--C#m-B


(Repeat Intro once)


Verse 3:
E                   B
  I don't want this moment
C#m        A
   to ever end
E                    B
  where everything's nothing
    C#m    A
without you


(Repeat Chorus twice)


End on E


Outro: Piano
        B         F#       Abm       E
e|-14-14-11-11-|-----|-14-14-11-11-|----|
B|-------------|-14--|-------------|-12-|
G|-------------|-----|-------------|----|
D|-------------|-----|-------------|----| x2
A|-------------|-----|-------------|----|
E|-------------|-----|-------------|----|

        B         F#   E
e|-14-14-11-11-|-----|----|
B|-------------|-14--|-12-|
G|-------------|-----|----|
D|-------------|-----|----|
A|-------------|-----|----|
E|-------------|-----|----|
Tap to rate this tab
# A B C D E F G H I J K L M N O P Q R S T U V W X Y Z