Song name
# A B C D E F G H I J K L M N O P Q R S T U V W X Y Z

Sum 41 - Over My Head Better Off Dead chords

Highlighted       Show chord diagrams
Over My Head

Key: G

Tuning: Standard EADGBe

Chords used:
Em -   022000
G -    320033
D -    xx0232
C -    x32010
D/F# - 2x023x
Am -   x02210
C/G -  33xx33
G/D -  x557xx

Intro:

Dave: * means palm mute, until Verses
     Em         G        D/F#      D
e|---------|---------|---------|---------|
B|---------|-0---0---|---------|---------|
G|-----0---|---------|-----2---|---------|
D|-2-2---2-|---2---2-|-4-4---4-|-----4---| x6
A|---------|---------|---------|-5-5---5-|
E|---------|---------|---------|---------|
   x x   x     x   x   x x   x   x x   x


Deryck: * means Harmonics
e|-7*----|
B|----7*-|
G|-------|
D|-------|
A|-------|
E|-------|

     Em         G        D/F#      D
e|---------|---------|---------|---------|
B|---------|---------|---------|---------|
G|---------|-4-4-4-4-|-2-2-2-2-|---------|
D|-2-2-2-2-|---------|---------|-4-4-4-4-| x4
A|---------|---------|---------|---------|
E|---------|---------|---------|---------|


Cone:
     Em         G        D/F#      D
G|---------|---------|---------|----------|
D|-2-2-2-2-|-5-5-5-5-|-4-4-4-4-|-0-0-0-0--|
A|---------|---------|---------|----------| x4
E|---------|---------|---------|----------|


Verse 1:
     Em
What happened to you?
G                   D
  You've played the victim for
   Em               G   D
so long now in this game
       Em              G
What I thought was true
           D
Is made of fiction and
    Em            G
I'm following the same
    D
But If I


Refrain:
C
try to make
      D
sense of this
         Em
mess I'm in
I'm not sure where
           C
I should begin
       D
I'm falling
       Em
I'm falling
Now I'm in


Dave: Refrains
         C                 D                 Em
e|-----------------|-----------------|-----------------|
B|-----------------|-----------------|---------0---2---|
G|-----------------|-----------------|-----0-----------|
D|-----2-----2---2-|-----4-----4---4-|-2-2---2---2---0-|
A|-3-3---3-3---3---|-5-5---5-5---5---|-----------------|
E|-----------------|-----------------|-----------------|
                                             x2

         C                 D                    Em
e|-----------------|-----------------|-------------------------|
B|-----------------|-----------------|-------------------------|
G|-----------------|-----------------|-------------------------|
D|-----2-----2---2-|-----4-----4---4-|-2-2-2-2-2-2-2-2-2-2-2-2-|
A|-3-3---3-3---3---|-5-5---5-5---5---|-2-2-2-2-2-2-2-2-2-2-2-2-|
E|-----------------|-----------------|-0-0-0-0-0-0-0-0-0-0-0-0-|


Cone: Refrains
         C                 D                        Em
G|-----------------|-----------------|----------------------------------|
D|-----2-----2---2-|-----4-----4---4-|-----5----4-5---------5---4-5-4---|
A|-3-3---3-3---3---|-5-5---5-5---5---|-7-7---7------7-7-7-7---7-------7-|
E|-----------------|-----------------|----------------------------------|

         C                 D                    Em
G|-----------------|-----------------|-------------------------|
D|-----2-----2---2-|-----4-----4---4-|-------------------------|
A|-3-3---3-3---3---|-5-5---5-5---5---|-------------------------|
E|-----------------|-----------------|-0-0-0-0-0-0-0-0-0-0-0-0-|


Chorus:
Em
Over my head with
C
something I said
   G
Completely misread
    D
I'm better off dead
    Em
And now I can see
    C/G
how fake you can be
       G/D
This hypocricy's
  D
beginning to get to me


Interlude:

Deryck: Em-C-G-D x2

Dave:
   Em    C    G    D
e|-----|----|----|----|
B|-----|----|----|----|
G|-12--|-14-|-14-|-11-|
D|--x--|--x-|--x-|--x-| x2
A|-10--|-12-|-10-|--9-|
E|-----|----|----|----|

Cone:
    Em     C      G        D
G|------|------|------|---------|
D|------|------|------|---------|
A|----3-|-3----|----5-|-5-5-3-5-| x2
E|-0----|----3-|-3----|---------|


Verse 2:
     Em
It's none of my concern
G              D
  Well look to me cause
  Em               G   D
I don't believe in fame
  Em
I guess you never heard
G              D
  I've met our makers they
      Em             G
don't even know your name
    D
But if I


Refrain 2:
C
had to say
    D
goodbye to
           Em
leave this hell
I'd say my time
              C
has served me well
       D
I'm falling
       Em
I'm falling
Now I'm in


(Repeat Chorus)


Post Chorus:
Em          C
  This came long before
G           D/F#
  Those who suffer more
Em         C/G
  I'm too awake for this
   G/D  D
to be a nightmare
Em            C
  What's with my disgrace
G            D/F#
  I lost the human race
Em             C/G
  No one plans for it to
G/D     D
Blow up in their face


Interlude:

Deryck: Em--D/F#--G--Am x2

Dave: Until Bridge
     Em      D/F#      G          Am
e|--------|--------|--------|-------------|
B|--------|--------|--------|-------------|
G|-12--11-|-14--12-|-16--12-|-11-12-14-16-|
D|--x---x-|--x---x-|--x---x-|--x--x-x---x-| x2
A|-10---9-|-12--10-|-14--10-|--9-10-12-14-|
E|--------|--------|--------|-------------|

Cone:
     Em        D/F#       G        Am
G|---------|---------|---------|---------|
D|---------|---------|---------|---------|
A|---------|---------|---------|---------| x2
E|-0-0-0-0-|-2-2-2-2-|-3-3-3-3-|-5-3-2-3-|

Bridge:
Em           D/F#     G
  Who said it was easy to put
     Am
back all these pieces
Em            D/F#        G
  Who said it was so easy to
             D/F#
put back all of these pieces
Now I'm in


(Repeat Chorus)


Outro:
Em C   G  D
O--ver my head
Em C   G   D
better off dead
(Repeat)
Tap to rate this tab
# A B C D E F G H I J K L M N O P Q R S T U V W X Y Z