Song name
# A B C D E F G H I J K L M N O P Q R S T U V W X Y Z

Sum 41 - Crash tab

Album: Screaming Bloody Murder

Tabbed By: Briska Uzcategui (User: BriskaStBlyth)

Email: briska2510@hotmail.com

x = mute note
p = pull off

Intro (Piano played):

e|----3-0-----------3-0-----------0------0--------------------------|
B|---------1-------------1p0--------3------3----1--1----3----3------|
G|--0-----------0---------------2-----2-----------------------------|
D|------------------------------------------------------------------|
A|-3--------------------------0-------------------------------------|
E|------------3-----------------------------------------------------|



Verse


Gr. 2 (Acoustic):

    Hold me now...        It's over now..        I don't want to go..               
    C    G    Am   F      C    G    Am   F         Am   C    Am   F 

e|--0-0--3-3--0-0---------0-0--3-3--0-0--------|---0-0--0-0--0-0--------|
B|--1-1--3-3--1-1--1-1----1-1--3-3--1-1--1-1---|---1-1--1-1--1-1--1-1---|
G|--0-0--0-0--2-2--2-2----0-0--0-0--2-2--2-2---|---2-2--0-0--2-2--2-2---|
D|--2-2--0-0--2-2--3-3----2-2--0-0--2-2--3-3---|---2-2--2-2--2-2--3-3---|
A|--3-3--2-2--0-0--3-3----3-3--2-2--0-0--3-3---|---0-0--3-3--0-0--3-3---|
E|-------3-3-------1-1---------3-3-------1-1---|------------------1-1---|

 So hold me now..
    C    G    Am

e|--0-0--3-3--0-0-0-0-0-0---|     /
B|--1-1--3-3--1-1-1-1-1-1---|    /
G|--0-0--0-0--2-2-2-2-2-2---| --/
D|--2-2--0-0--2-2-2-2-2-2---| --\ (x2)
A|--3-3--2-2--0-0-0-0-0-0---|    \ 
E|-------3-3----------------|     \



Chorus


Gr 1 (electric):

        I don't want to die...                     You got to be strong..
    F        G        Am                       F        G        Am                  

e|------------------------------------------|-------------------------------------------|
B|------------------------------------------|-------------------------------------------|
G|------------------------------------------|-------------------------------------------|
D|--3-3--xx--5-5--xx--7-7--xx--7-7-7-7-7-7--|--3-3--xx--5-5--xx--7-7--xx--7-7-7-7-7-7---|
A|--3-3--xx--5-5--xx--7-7--xx--7-7-7-7-7-7--|--3-3--xx--5-5--xx--7-7--xx--7-7-7-7-7-7---|
E|--1-1--xx--3-3--xx--5-5--xx--5-5-5-5-5-5--|--1-1--xx--3-3--xx--5-5--xx--5-5-5-5-5-5---|

        And what do I say..                               What do I have to do..
    F        G        Am                      G       F       G         Am

e|-------------------------------------------------|--------------------------------------------|
B|-------------------------------------------------|--------------------------------------------|
G|-------------------------------------------------|--------------------------------------------|
D|--3-3--xx--5-5--xx--7-7--xx--7-7-7-7-7--xx--5-5--|--3-3--xx--5-5--xx------7-------7-------7---|
A|--3-3--xx--5-5--xx--7-7--xx--7-7-7-7-7--xx--5-5--|--3-3--xx--5-5--xx----7---7---7---7---7---7-|
E|--1-1--xx--3-3--xx--5-5--xx--5-5-5-5-5--xx--3-3--|--1-1--xx--3-3--xx--5-------5-------5-------|

        But that ain't...
    F       G           F       G

e|-----------------------------------|
B|-----------------------------------|
G|-----------------------------------|
D|--3-------5---5-------3-------5----|
A|--3-------5-----5-----3-------5----|
E|--1-------3-----------1-------3----|


Gr 2 (acoustic):

         I don't want to die..                      You got to be strong..
    F        G        Am                       F        G        Am

e|-------xx--3-3--xx--0-0--xx--0-0-0-0-0-0--|-------xx--3-3--xx--0-0--xx--0-0-0-0-0-0---|
B|--1-1--xx--3-3--xx--1-1--xx--1-1-1-1-1-1--|--1-1--xx--3-3--xx--1-1--xx--1-1-1-1-1-1---|
G|--2-2--xx--0-0--xx--2-2--xx--2-2-2-2-2-2--|--2-2--xx--0-0--xx--2-2--xx--2-2-2-2-2-2---|
D|--3-3--xx--0-0--xx--2-2--xx--2-2-2-2-2-2--|--3-3--xx--0-0--xx--2-2--xx--2-2-2-2-2-2---|
A|--3-3--xx--2-2--xx--0-0--xx--0-0-0-0-0-0--|--3-3--xx--2-2--xx--0-0--xx--0-0-0-0-0-0---|
E|--1-1--xx--3-3--xx--0-0--xx--0-0-0-0-0-0--|--1-1--xx--3-3--xx--0-0--xx--0-0-0-0-0-0---|

         And what do I say..                               What do I have to do..
    F        G        Am                      G       F        G        Am

e|-------xx--3-3--xx--0-0--xx--0-0-0-0-0--xx--3-3--|-------xx--3-3--xx--------------------------|
B|--1-1--xx--3-3--xx--1-1--xx--1-1-1-1-1--xx--3-3--|--1-1--xx--3-3--xx------1-------1-------1---|
G|--2-2--xx--0-0--xx--2-2--xx--2-2-2-2-2--xx--0-0--|--2-2--xx--0-0--xx----2---2---2---2---2---2-|
D|--3-3--xx--0-0--xx--2-2--xx--2-2-2-2-2--xx--0-0--|--3-3--xx--0-0--xx--2-------2-------2-------|
A|--3-3--xx--2-2--xx--0-0--xx--0-0-0-0-0--xx--2-2--|--3-3--xx--2-2--xx--------------------------|
E|--1-1--xx--3-3--xx--0-0--xx--0-0-0-0-0--xx--3-3--|--1-1--xx--3-3--xx--------------------------|

        But that ain't..
    F       G           F       G

e|----------3---3---------------3----|
B|--1-------3-----3-----1-------3----|
G|--2-------0-----------2-------0----|
D|--3-------0-----------3-------0----|
A|--3-------2-----------3-------2----|
E|--1-------3-----------1-------3----|


Verse


Gr 2 (acoustic):

    Hold me now..                          No tears allowed..
    C       G         Am       F           C        G        Am       F

e|--------------------------------------|--------------------------------------|
B|------1--------3--------1--------1----|------1--------3--------1--------1----|
G|--------0--------0--------2--------2--|--------0--------0--------2--------2--|
D|----2--------0--------2--------3------|----2--------0--------2--------3------|
A|--3-----------------0-----------------|--3-----------------0-----------------|
E|-----------3-----------------1--------|-----------3-----------------1--------|

  I just want to feel..                 So hold me now..
    Am       C        Am       F           C        G          Am

e|--------------------------------------|----------------------0----------|
B|------1--------1--------1--------1----|------1--------3------1----------|
G|--------2--------0--------2--------2--|--------0--------0----2----------|
D|----2--------2--------2--------3------|----2--------0--------2----------|
A|--0--------3--------0-----------------|--3-------------------0----------|
E|-----------------------------1--------|-----------3---------------------|


Chorus


Gr 1 (electric):

         I don't want to die...                     You got to be strong..
    F        G        Am                       F        G        Am                  

e|------------------------------------------|-------------------------------------------|
B|------------------------------------------|-------------------------------------------|
G|------------------------------------------|-------------------------------------------|
D|--3-3--xx--5-5--xx--7-7--xx--7-7-7-7-7-7--|--3-3--xx--5-5--xx--7-7--xx--7-7-7-7-7-7---|
A|--3-3--xx--5-5--xx--7-7--xx--7-7-7-7-7-7--|--3-3--xx--5-5--xx--7-7--xx--7-7-7-7-7-7---|
E|--1-1--xx--3-3--xx--5-5--xx--5-5-5-5-5-5--|--1-1--xx--3-3--xx--5-5--xx--5-5-5-5-5-5---|

         And what do I say..                              What do I have to do..
    F        G        Am                      G       F       G         Am

e|-------------------------------------------------|--------------------------------------------|
B|-------------------------------------------------|--------------------------------------------|
G|-------------------------------------------------|--------------------------------------------|
D|--3-3--xx--5-5--xx--7-7--xx--7-7-7-7-7--xx--5-5--|--3-3--xx--5-5--xx------7-------7-------7---|
A|--3-3--xx--5-5--xx--7-7--xx--7-7-7-7-7--xx--5-5--|--3-3--xx--5-5--xx----7---7---7---7---7---7-|
E|--1-1--xx--3-3--xx--5-5--xx--5-5-5-5-5--xx--3-3--|--1-1--xx--3-3--xx--5-------5-------5-------|

        But that ain't..
    F       G           F       G

e|-----------------------------------|
B|-----------------------------------|
G|-----------------------------------|
D|--3-------5---5-------3-------5----|
A|--3-------5-----5-----3-------5----|
E|--1-------3-----------1-------3----|


Gr 2 (acoustic):

         I don't want to die..                      You got to be strong..
    F        G        Am                       F        G        Am

e|-------xx--3-3--xx--0-0--xx--0-0-0-0-0-0--|-------xx--3-3--xx--0-0--xx--0-0-0-0-0-0---|
B|--1-1--xx--3-3--xx--1-1--xx--1-1-1-1-1-1--|--1-1--xx--3-3--xx--1-1--xx--1-1-1-1-1-1---|
G|--2-2--xx--0-0--xx--2-2--xx--2-2-2-2-2-2--|--2-2--xx--0-0--xx--2-2--xx--2-2-2-2-2-2---|
D|--3-3--xx--0-0--xx--2-2--xx--2-2-2-2-2-2--|--3-3--xx--0-0--xx--2-2--xx--2-2-2-2-2-2---|
A|--3-3--xx--2-2--xx--0-0--xx--0-0-0-0-0-0--|--3-3--xx--2-2--xx--0-0--xx--0-0-0-0-0-0---|
E|--1-1--xx--3-3--xx--0-0--xx--0-0-0-0-0-0--|--1-1--xx--3-3--xx--0-0--xx--0-0-0-0-0-0---|

         And what do I say..                               What do I have to do..
    F        G        Am                      G       F        G        Am

e|-------xx--3-3--xx--0-0--xx--0-0-0-0-0--xx--3-3--|-------xx--3-3--xx--------------------------|
B|--1-1--xx--3-3--xx--1-1--xx--1-1-1-1-1--xx--3-3--|--1-1--xx--3-3--xx------1-------1-------1---|
G|--2-2--xx--0-0--xx--2-2--xx--2-2-2-2-2--xx--0-0--|--2-2--xx--0-0--xx----2---2---2---2---2---2-|
D|--3-3--xx--0-0--xx--2-2--xx--2-2-2-2-2--xx--0-0--|--3-3--xx--0-0--xx--2-------2-------2-------|
A|--3-3--xx--2-2--xx--0-0--xx--0-0-0-0-0--xx--2-2--|--3-3--xx--2-2--xx--------------------------|
E|--1-1--xx--3-3--xx--0-0--xx--0-0-0-0-0--xx--3-3--|--1-1--xx--3-3--xx--------------------------|

        But that ain't...
    F       G           F       G

e|----------3---3---------------3----------|
B|--1-------3-----3-----1-------3----------|
G|--2-------0-----------2-------0----------|
D|--3-------0-----------3-------0----------|
A|--3-------2-----------3-------2----------|
E|--1-------3-----------1-------3----------|


Lyrics:

C       G             Am                 F
Hold me now, 'cause I couldn't even if I tried,
     C    G      Am                    F
It's over now, I guess it really is my time,
  Am          C            Am                    F
I don't wanna go, but it's time I got to say goodbye,
    C          G           Am                    F
So, hold me me now, 'cause this will be our last time.


    C       G          Am                     F
I'm slowing down and I don't think that I can fight,
  C         G          Am                      F
I know some how you'll find a way to live your life,
  Am             C          Am                 F
Remember just to live every day like it's your last,
    C       G             Am                               
And hold me now, 'cause I think it's time for me to pass.


F                   G                 Am                                        F
   I don't want to die, I don't know why, this kind of fate was meant for me.
              G                   Am                                      F
You got to be strong, got to move on, it's not how it was 'sposed to be.
              G           Am                                  F
And what do I say, it was never supposed to end up this way,
          G                    Am                            F
What do I have to do, was I supposed to grow old with you?
                     G           F
But that ain't gonna happen,
                     G
No, that ain't gonna happen.



C       G               Am                      F
Hold me now, 'cause the time I've got's running out,
   C        G           Am                     F
No tears allowed, even though we've become without,
  Am           C         Am                F
I just want to feel your head laying on my chest,
   C       G         Am                   
So hold me now, as I take my last breath.
Tap to rate this tab
# A B C D E F G H I J K L M N O P Q R S T U V W X Y Z