Song name
# A B C D E F G H I J K L M N O P Q R S T U V W X Y Z

Sum 41 - March Of The Dogs Acoustic tab

Capo on the 2nd Fret
Tuning: Half Step Down (D# G# C# F# A# D#)

Intro:

D#|------------------------------------------------------|
A#|------------------------------------------------------|
F#|-9--9--9--9---9--9--9--9--9--9--9--9--9--9--9--9------|
C#|-9--9--9--9---9--9--9--9--9--9--9--9--9--9--9--9------|
G#|-7--7--7--7---6--6--6--6--x--x--x--x--x--x--x--x------|
D#|--------------------------9--9--9--9--7--7--7--7------|

D#|------------------------------------------------------|
A#|------------------------------------------------------|
F#|-9--9--9--9---9--9--9--9--9--9--9--9--9--9--9--9------|
C#|-9--9--9--9---9--9--9--9--9--9--9--9--9--9--9--9------|
G#|-7--7--7--7---6--6--6--6--x--x--x--x--x--x--x--x------|
D#|--------------------------9--9--9--9--7--7--7--7------|

D#|------------------------------------------------------|
A#|------------------------------------------------------|
F#|-9--9--9--9---9--9--9--9--9--9--9--9--9--9--9--9------|
C#|-9--9--9--9---9--9--9--9--9--9--9--9--9--9--9--9------|
G#|-7--7--7--7---6--6--6--6--x--x--x--x--x--x--x--x------|
D#|--------------------------9--9--9--9--7--7--7--7------|

D#|------------------------------------------------------|
A#|------------------------------------------------------|
F#|-9--9--9--9---9--9--9--9--9--9--9--9--9--9--9--9------|
C#|-9--9--9--9---9--9--9--9--9--9--9--9--9--9--9--9------|
G#|-7--7--7--7---6--6--6--6--x--x--x--x--x--x--x--x------|
D#|--------------------------9--9--9--9--7--7--7--7------|

D#|-------------------------------------------------------|
A#|-------------------------------------------------------|
F#|-9--9--9--9--9--9--9--9--------------------------------|
C#|-9--9--9--9--9--9--9--9--------------------------------|
G#|-7--7--7--7--7--7--7--7--------------------------------|
D#|-------------------------------------------------------|

Verse:

D#|--------------------------------------------------------------------------------|
A#|--------------------------------------------------------------------------------|
F#|-9--9--9--9---9--9--9--9---9--9--9--9---9--9--9--9---9--9--9--9---9--9--9--9----|
C#|-9--9--9--9---9--9--9--9---9--9--9--9---9--9--9--9---9--9--9--9---9--9--9--9----|
G#|-7--7--7--7---6--6--6--6---x--x--x--x---x--x--x--x---x--x--x--x---x--x--x--x----|
D#|---------------------------9--9--9--9---7--7--7--7---x--x--x--x---7--7--7--7----|


D#|--------------------------------------------------------|
A#|--------------------------------------------------------|
F#|-9--9--9--9---9--9--9--9--------------------------------|
C#|-9--9--9--9---9--9--9--9--------------------------------|
G#|-x--x--x--x---x--x--x--x--------------------------------|
D#|-9--9--9--9---7--7--7--7--------------------------------|

Pre-Chorus:

D#|----------------------------------------------------------|
A#|----------------------------------------------------------|
F#|--2-2-2-2--4-4-4-4--6-6-6-6--4-4-4-4--2-2-2-2--4-4-4-4----|
C#|--2-2-2-2--4-4-4-4--6-6-6-6--4-4-4-4--2-2-2-2--4-4-4-4----|
G#|--x-x-x-x--2-2-2-2--4-4-4-4--2-2-2-2--x-x-x-x--2-2-2-2----|
D#|--x-x-x-x-----------------------------x-x-x-x-------------|


D#|--------------------------------------------------------|
A#|--------------------------------------------------------|
F#|-9--9---9--9---9--9---9--9---9--9--9--9---9--9--9--9----|
C#|-9--9---9--9---9--9---9--9---9--9--9--9---9--9--9--9----|
G#|-7--7---6--6---x--x---x--x---x--x--x--x---x--x--x--x----|
D#|---------------9--9---7--7---x--x--x--x---7--7--7--7----|

Chorus:

D#|--------------------------------------------------------|
A#|--------------------------------------------------------|
F#|-9--9---9--9---9--9---9--9------------------------------|
C#|-9--9---6--6---9--9---9--9------------------------------|
G#|-7--7---6--6---x--x---x--x------------------------------|
D#|---------------9--9---7--7------------------------------|

D#|--------------------------------------------------------|
A#|--------------------------------------------------------|
F#|-9--9---9--9---9--9---9--9------------------------------|
C#|-9--9---6--6---9--9---9--9------------------------------|
G#|-7--7---6--6---x--x---x--x------------------------------|
D#|---------------9--9---7--7------------------------------|

D#|--------------------------------------------------------|
A#|--------------------------------------------------------|
F#|-9--9--9--9---9--9--9--9---9--9--9--9---9--9--9--9------|
C#|-9--9--9--9---9--9--9--9---9--9--9--9---9--9--9--9------|
G#|-7--7--7--7---6--6--6--6---x--x--x--x---x--x--x--x------|
D#|---------------------------9--9--9--9---7--7--7--7------|


Bridge


D#|--------------------------------------------------------|
A#|--------------------------------------------------------|
F#|-9--9--9--9---9--9--9--9---9--9--9--9---9--9--9--9------|
C#|-9--9--9--9---9--9--9--9---9--9--9--9---9--9--9--9------|
G#|-7--7--7--7---x--x--x--x---x--x--x--x---x--x--x--x------|
D#|--------------7--7--7--7---x--x--x--x---7--7--7--7------|


Verse:

D#|--------------------------------------------------------------------------------|
A#|--------------------------------------------------------------------------------|
F#|-9--9--9--9---9--9--9--9---9--9--9--9---9--9--9--9---9--9--9--9---9--9--9--9----|
C#|-9--9--9--9---9--9--9--9---9--9--9--9---9--9--9--9---9--9--9--9---9--9--9--9----|
G#|-7--7--7--7---6--6--6--6---x--x--x--x---x--x--x--x---x--x--x--x---x--x--x--x----|
D#|---------------------------9--9--9--9---7--7--7--7---x--x--x--x---7--7--7--7----|


D#|--------------------------------------------------------|
A#|--------------------------------------------------------|
F#|-9--9--9--9---9--9--9--9--------------------------------|
C#|-9--9--9--9---9--9--9--9--------------------------------|
G#|-x--x--x--x---x--x--x--x--------------------------------|
D#|-9--9--9--9---7--7--7--7--------------------------------|

Pre-Chorus:

D#|----------------------------------------------------------|
A#|----------------------------------------------------------|
F#|--2-2-2-2--4-4-4-4--6-6-6-6--4-4-4-4--2-2-2-2--4-4-4-4----|
C#|--2-2-2-2--4-4-4-4--6-6-6-6--4-4-4-4--2-2-2-2--4-4-4-4----|
G#|--x-x-x-x--2-2-2-2--4-4-4-4--2-2-2-2--x-x-x-x--2-2-2-2----|
D#|--x-x-x-x-----------------------------x-x-x-x-------------|


D#|--------------------------------------------------------|
A#|--------------------------------------------------------|
F#|-9--9---9--9---9--9---9--9---9--9--9--9---9--9--9--9----|
C#|-9--9---9--9---9--9---9--9---9--9--9--9---9--9--9--9----|
G#|-7--7---6--6---x--x---x--x---x--x--x--x---x--x--x--x----|
D#|---------------9--9---7--7---x--x--x--x---7--7--7--7----|

Chorus:

D#|--------------------------------------------------------|
A#|--------------------------------------------------------|
F#|-9--9---9--9---9--9---9--9------------------------------|
C#|-9--9---6--6---9--9---9--9------------------------------|
G#|-7--7---6--6---x--x---x--x------------------------------|
D#|---------------9--9---7--7------------------------------|

D#|--------------------------------------------------------|
A#|--------------------------------------------------------|
F#|-9--9---9--9---9--9---9--9------------------------------|
C#|-9--9---6--6---9--9---9--9------------------------------|
G#|-7--7---6--6---x--x---x--x------------------------------|
D#|---------------9--9---7--7------------------------------|

D#|--------------------------------------------------------|
A#|--------------------------------------------------------|
F#|-9--9--9--9---9--9--9--9---9--9--9--9---9--9--9--9------|
C#|-9--9--9--9---9--9--9--9---9--9--9--9---9--9--9--9------|
G#|-7--7--7--7---6--6--6--6---x--x--x--x---x--x--x--x------|
D#|---------------------------9--9--9--9---7--7--7--7------|

D#|--------------------------------------------------------|
A#|--------------------------------------------------------|
F#|-9--9--9--9--9--9--9--9---------------------------------|
C#|-9--9--9--9--9--9--9--9---------------------------------|
G#|-7--7--7--7--7--7--7--7---------------------------------|
D#|--------------------------------------------------------|


Solo:

D#|-4-4-4-4--0-0-0-0--0-0-0-0-----------------------------0-0-0-0--0-0-0-0----------|
A#|-5-5-5-5--0-0-0-0--0-0-0-0-----------------------------0-0-0-0--0-0-0-0----------|
F#|-6-6-6-6--2-2-2-2--0-0-0-0--4-4-4-4--5-5-6-6--6-6-6-6--2-2-2-2--0-0-0-0--4-4-4-4-|
C#|-6-6-6-6--2-2-2-2--2-2-2-2--4-4-4-4--5-5-6-6--6-6-6-6--2-2-2-2--2-2-2-2--4-4-4-4-|
G#|-4-4-4-4--0-0-0-0--2-2-2-2--2-2-2-2--3-3-3-3--4-4-4-4--0-0-0-0--2-2-2-2--2-2-2-2-|
D#|-4-4-4-4--0-0-0-0--0-0-0-0-----------------------------0-0-0-0--0-0-0-0----------|

Chorus:

D#|--------------------------------------------------------|
A#|--------------------------------------------------------|
F#|-9--9---9--9---9--9---9--9------------------------------|
C#|-9--9---6--6---9--9---9--9------------------------------|
G#|-7--7---6--6---x--x---x--x------------------------------|
D#|---------------9--9---7--7------------------------------|

D#|--------------------------------------------------------|
A#|--------------------------------------------------------|
F#|-9--9---9--9---9--9---9--9------------------------------|
C#|-9--9---6--6---9--9---9--9------------------------------|
G#|-7--7---6--6---x--x---x--x------------------------------|
D#|---------------9--9---7--7------------------------------|

D#|--------------------------------------------------------|
A#|--------------------------------------------------------|
F#|-9--9--9--9---9--9--9--9---9--9--9--9---9--9--9--9------|
C#|-9--9--9--9---9--9--9--9---9--9--9--9---9--9--9--9------|
G#|-7--7--7--7---6--6--6--6---x--x--x--x---x--x--x--x------|
D#|---------------------------9--9--9--9---7--7--7--7------|

Outro:

D#|------------------------------------------------------|
A#|------------------------------------------------------|
F#|-9--9--9--9---9--9--9--9--9--9--9--9--9--9--9--9------|
C#|-9--9--9--9---9--9--9--9--9--9--9--9--9--9--9--9------|
G#|-7--7--7--7---6--6--6--6--x--x--x--x--x--x--x--x------|
D#|--------------------------9--9--9--9--7--7--7--7------|

D#|------------------------------------------------------|
A#|------------------------------------------------------|
F#|-9--9--9--9---9--9--9--9--9--9--9--9--9--9--9--9------|
C#|-9--9--9--9---9--9--9--9--9--9--9--9--9--9--9--9------|
G#|-7--7--7--7---6--6--6--6--x--x--x--x--x--x--x--x------|
D#|--------------------------9--9--9--9--7--7--7--7------|

D#|-------------------------------------------------------|
A#|-------------------------------------------------------|
F#|-9--9--9--9--9--9--9--9--------------------------------|
C#|-9--9--9--9--9--9--9--9--------------------------------|
G#|-7--7--7--7--7--7--7--7--------------------------------|
D#|-------------------------------------------------------|
Tap to rate this tab
 
# A B C D E F G H I J K L M N O P Q R S T U V W X Y Z