Guitaretab - guitar tabs
Song name
# A B C D E F G H I J K L M N O P Q R S T U V W X Y Z

Sum 41 - Does This Look Infected tab

Album: Does This Look Infected?
Artists: SUM 41
Tabbed By: David Huzyk (Babaca)

I noticed that a few tabs for songs on this album was missing, and i
thought instead of making a few of them i might as well make the whole
album. So here it is, all of SUM 41's new songs off there new album
Does This Look Infected (awsome album, buy it you cheap bastard!!!).
Also, these songs are very, very accurate so use them!!!

Note: Lead Guitar is Guitar 1 (Dave/Brown Sound)
      Rhythm Guitar is Guitar 2 (Deryck/Bizzy D)

TRACK LIST
1. The Hell Song
2. Over My Head
3. My Direction
4. Still Waiting
5. A.N.I.C.
6. No Brains
7. All Messed Up
8. Mr. Amsterdam
9. Thanks For Nothing
10. Hyper-Insomnia-Para-Condroid
11. Billy Spleen
12. Hooch

----------------------------------------------------------------------
1. THE HELL SONG
Standard Tuning (both guitars)

INTRO
Guitar 1
|---------------------------------------------------|
|---------------------------------------------------|
|---------------------------------------------------| X3
|---------------------------------------------------|
|-----4-6---------4-6---------4-6-------7-7-6-6-4-4-|
|-4-7-----7---0-7-----7---7-7-----7---2-------------|

Guitar 2 (hits harmonics on the 7th frets and then plays)
|--------------------------------------------------------------------|
|--------------------------------------------------------------------|
|-----------------------------------4-4-4-4-4-4-4-4------------------| X2
|-6-6-6-6-6-6-6-6--2-2-2-2-2-2-2-2--4-4-4-4-4-4-4-4--4-4-4-4-4-4-4-4-|
|-6-6-6-6-6-6-6-6--2-2-2-2-2-2-2-2--2-2-2-2-2-2-2-2--4-4-4-4-4-4-4-4-|
|-4-4-4-4-4-4-4-4--0-0-0-0-0-0-0-0-------------------2-2-2-2-2-2-2-2-|


VERSE
Guitar 1
|--------------------------------------------------------------------|
|--------------------------------------------------------------------|
|-----------------------------------4-4-4-4-4-4-4-4------------------|
|-6-6-6-6-6-6-6-6--2-2-2-2-2-2-2-2--4-4-4-4-4-4-4-4--4-4-4-4-4-4-4-4-|
|-6-6-6-6-6-6-6-6--2-2-2-2-2-2-2-2--2-2-2-2-2-2-2-2--4-4-4-4-4-4-4-4-|
|-4-4-4-4-4-4-4-4--0-0-0-0-0-0-0-0-------------------2-2-2-2-2-2-2-2-|
pm. . . . . . . .  . . . . . . . .  . . . . . . . .  . . . . . . . .

cont'd
|----------------------------------------------------------------|
|----------------------------------------------------------------|
|-----------------------------------4-4-4-4-4-4-4-4--------------|
|-6-6-6-6-6-6-6-6--2-2-2-2-2-2-2-2--4-4-4-4-4-4-4-4--4-4-4-4-4-4-|
|-6-6-6-6-6-6-6-6--2-2-2-2-2-2-2-2--2-2-2-2-2-2-2-2--4-4-4-4-4-4-|
|-4-4-4-4-4-4-4-4--0-0-0-0-0-0-0-0-------------------2-2-2-2-2-2-|
pm. . . . . . . .  . . . . . . . .  . . . . . . . .  . .   .

VERSE PT.2
|----------------------------------------------------|
|----------------------------------------------------|
|---------------------------4-4-4-4-4-4--------------|
|-6-6-6-6-6-6--2-2-2-2-2-2--4-4-4-4-4-4--4-4-4-4-4-4-|
|-6-6-6-6-6-6--2-2-2-2-2-2--2-2-2-2-2-2--4-4-4-4-4-4-|
|-4-4-4-4-4-4--0-0-0-0-0-0---------------2-2-2-2-2-2-|
pm. .   . .    . .   . .    . .   . .    . .   .

cont'd
|------------------------------------------------------------|
|------------------------------------------------------------|
|---------------------------4-4-4-4-4-4-4-4------------------|
|-6-6-6-6-6-6--2-2-2-2-2-2--4-4-4-4-4-4-4-4--4-4-4-4-4-4-4-4-|
|-6-6-6-6-6-6--2-2-2-2-2-2--2-2-2-2-2-2-2-2--4-4-4-4-4-4-4-4-|
|-4-4-4-4-4-4--0-0-0-0-0-0-------------------2-2-2-2-2-2-2-2-|
pm. .   . .    . .   . .

(play intro again)

(play verse pt.2 again)


CHORUS
Guitar 1&2
|----------------------------------------------------------------------|
|----------------------------------------------------------------------|
|------------------9-9-9-9-9-9-9-9-9-----------------------------------| X4
|-6-6-6-6-6-6-6-6--9-9-9-9-9-9-9-9-9--9-9-9-9-9-9-9-9--4-4-4-4-4-4-4-4-|
|-6-6-6-6-6-6-6-6--7-7-7-7-7-7-7-7-7--9-9-9-9-9-9-9-9--4-4-4-4-4-4-4-4-|
|-4-4-4-4-4-4-4-4---------------------7-7-7-7-7-7-7-7--2-2-2-2-2-2-2-2-|


PRE-SOLO
Guitar 2
|-------------------------------|
|-------------------------------|
|-------------------------------|
|-6-6-4---6-6---6-6---6-6---6-6-|
|-6-6-4---6-6---6-6---6-6---6-6-|
|-4-4-2---4-4---4-4---4-4---4-4-|


SOLO
Guitar 1
|------------------------------------------------------------|
|--9---9-9-9------9--9-9-9-----7--7-7-7---5------------------|
|-11^--------8---11^-------8----------------8--6h8h9-8p6-4h6-|
|------------------------------------------------------------|
|------------------------------------------------------------|
|------------------------------------------------------------|

cont'd
|---------------------------------------------------------|
|----------9----------------------------------------------|
|--8-9-11----11-9--8-9---4h6p4h6p4h6p4h6--6h8p6h8p6h8p6h8-|
|---------------------------------------------------------|
|---------------------------------------------------------|
|---------------------------------------------------------|

cont'd
|-------------------------------------------------------------------------------|
|----------------------------------------9---x-x--11---x-x--12---x-x--14--------|
|-8h9p8h9p8h9p8h9--9h11p9h11p9h11p9h11--11^--x-x--13^--x-x--14^--x-x--16^-16p13-|
|-------------------------------------------------------------------------------|
|-------------------------------------------------------------------------------|
|-------------------------------------------------------------------------------|

cont'd
|---------------------------------------------------14--------------14---------|
|-14^-14^-14^-14^p12--12---14^-14^-14-12-14-12---14^--14-12-14---14^--14-12-14-|
|-------------------13---------------------------------------------------------|
|------------------------------------------------------------------------------|
|------------------------------------------------------------------------------|
|------------------------------------------------------------------------------|

cont'd
|------------------------------------------------------------------|
|-11-11-12-11------------------------------------------------------|
|-------------11-13----11------------------------------13-11-13/-\-|
|-------------------13----11-------11-------11----------x--x--x/-\-|
|----------------------------14-14----14-14----14~-----11--9-11/-\-|
|------------------------------------------------------------------|

Guitar 2
|-------------------------------------------------------------------------|
|-------------------------------------------------------------------------|
|-----------------------------------4-4-4-4-4-4-4-4-----------------------| X2
|-6-6-6-6-6-6-6-6--2-2-2-2-2-2-2-2--4-4-4-4-4-4-4-4--4-4--4--4-4--4--4--4-|
|-6-6-6-6-6-6-6-6--2-2-2-2-2-2-2-2--2-2-2-2-2-2-2-2--4-4--4--4-4--4--4--4-|
|-4-4-4-4-4-4-4-4--0-0-0-0-0-0-0-0-------------------2-2--2--2-2--2--2--2-|


|---------------------------------------------------------------------------|
|---------------------------------------------------------------------------|
|-------------------------------------4-4-4-4-4-4-4-4-----------------------| X2
|-6-x-6-6-x-6-6-x--2-x-2-2-x-2-2-x-2--4-4-4-4-4-4-4-4--4-4--4--4-4--4--4--4-|
|-6-x-6-6-x-6-6-x--2-x-2-2-x-2-2-x-2--2-2-2-2-2-2-2-2--4-4--4--4-4--4--4--4-|
|-4-x-4-4-x-4-4-x--0-x-0-0-x-0-0-x-0-------------------2-2--2--2-2--2--2--2-|


PRE CHORUS
Guitar 2
|--------------------------------------------------------------------|
|--------------------------------------------------------------------|
|-----------------------------------4-4-4-4-4-4-4-4------------------| X2,but 2nd time
|-6-6-6-6-6-6-6-6--2-2-2-2-2-2-2-2--4-4-4-4-4-4-4-4--4-4-4-4-4-4-4-4-| let last note
|-6-6-6-6-6-6-6-6--2-2-2-2-2-2-2-2--2-2-2-2-2-2-2-2--4-4-4-4-4-4-4-4-| ring
|-4-4-4-4-4-4-4-4--0-0-0-0-0-0-0-0-------------------2-2-2-2-2-2-2-2-|
pm. . . . . . . .  . . . . . . . .  . . . . . . . .  . . . . . . . .

THEN
Guitar 1
|-------|
|-------|
|-------|
|-6-4-6-|
|-6-4-6-|
|-4-2-4-|


(play chorus again, but guitar 2 plays this riff during it)
Guitar 1
|-----------------|
|-----------------|
|-----------------| X4
|-4-2-1-----------|
|-------4-2-1-----|
|-------------2-4-|

(play intro again)

END ON
|---|
|---|
|---|
|-6-|
|-6-|
|-4-|
_____________________________________________________________________________________
2. OVER MY HEAD

Standard Tuning (both guitars)

INTRO
Guitar 1
|-------------------------------------|
|-------------------------------------|
|----------4---4----------------------| X2
|------5----------------7--------4----|
|--7-7---7---7---7--5-5---5--5-5---5--|
|-------------------------------------|
pm . .   .   .   .  . .   .  . .   .

Guitar 2 (* is harmonics)
|---------------------7*--------------|
|-------------------------7*----------|
|-----------------------------7*------|
|---------------------------------7*--|
|-------------------------------------|
|-------------------------------------|

BRIDGE
Guitar 1&2
|----------------------------------|
|----------------------------------|
|--9999--12121212--11111111--7777--| X4
|--xxxx---x-x-x-x---x-x-x-x--xxxx--|
|--7777--10101010---9-9-9-9--5555--|
|----------------------------------|


VERSE
Guitar 1 (plays intro again twice, then this)
|--------------------------------------------------------|
|--------------------------------------------------------|
|---------------------------------------4-4---------4-4--|
|-----2----2---2-----4-----4--4-----5------------5-------|
|--3-3--3-3---3---5-5---5-5--5---7-7--7--7---7-7---7-7-7-|
|--------------------------------------------------------|
pm . .  . .   .   . .   . .  .   . .  .  .   . .   . . .

cont'd
|----------------------------------------------*7-------|
|------------------------------------------------*7-----|
|--------------------------------------------------*7---|
|-----2-----2--2------4-----4--4---------------------*7-|
|--3-3---3-3--3----5-5---5-5--5--2222222222222----------|
|--------------------------------0000000000000----------|
pm . .   . .  .    . .   . .  .  .............


CHORUS
Guitar 1&2
|--------------------------------------------------------------------|
|--------------------------------------------------------------------|
|------------------5-5-5-5-5-5-5-5-------------------7-7-7-7-7-7-7-7-| X2
|-2-2-2-2-2-2-2-2--5-5-5-5-5-5-5-5--5-5-5-5-5-5-5-5--7-7-7-7-7-7-7-7-|
|-2-2-2-2-2-2-2-2--3-3-3-3-3-3-3-3--5-5-5-5-5-5-5-5--5-5-5-5-5-5-5-5-|
|-0-0-0-0-0-0-0-0-------------------3-3-3-3-3-3-3-3------------------|


POST CHORUS
Guitar 1&2
|---------------------------------------------|
|---------------------------------------------|
|--12--12-12--14--14-14--12--12-12--11--11-11-| X2
|---x---x--x---x---x--x---x---x--x---x---x--x-|
|--10--10-10--12--12-12--10--10-10---9---9--9-|
|---------------------------------------------|

(play verse again)
(play chorus again)


PRE-INTERLUDE
Guitar 1&2
|--------------------------------------------------|
|--------------------------------------------------| X3, but 2nd time
|------------5--5-5-5-5-5--------------------------| guitar 1 hits
|-2-2-2-2-2--5--5-5-5-5-5--5-5-5-5-5--4--4-4-4-4-4-| harmonics on the 7th
|-2-2-2-2-2--3--3-3-3-3-3--5-5-5-5-5--5--5-5-5-5-5-| fret after last set
|-0-0-0-0-0----------------3-3-3-3-3--2--2-2-2-2-2-| of chords

then
|----------------------------------------|
|----------------------------------------|
|------------5--5-5-5-5-5----------------| X1
|-2-2-2-2-2--5--5-5-5-5-5--5-5----4-4--4-|
|-2-2-2-2-2--5--5-5-5-5-5--5-5----5-5--5-|
|-0-0-0-0-0----------------3-3----2-2--2-|

INTERLUDE
Guitar 1&2 (guitar 2 stops playing after 2 times though)
|------------------------------------------------------------------------------|
|------------------------------------------------------------------------------|
|-12-12-12-12--11-11-11-11--14-14-14-14--12-12-12-12--16-16-16-16--12-12-12-12-|
|--x--x--x--x---x--x--x--x---x--x--x--x---x--x--x--x---x--x--x--x---x--x--x--x-|
|-10-10-10-10---9--9--9--9--12-12-12-12--10-10-10-10--14-14-14-14--10-10-10-10-|
|------------------------------------------------------------------------------|

cont'd
|----------------------------|
|----------------------------|
|-11-11--12-12--14-14--16-16-| X4, but last time hit
|--x--x---x--x---x--x---x--x-| the last note many times
|--9--9--10-10--12-12--14-14-| into the chorus
|----------------------------|


(play chorus again)

OUTRO
Guitar 1 plays post chorus while guitar 2 plays this:
|--------------------------------|
|--------------------------------|
|---------5--5-5----------7--7-7-| X4
|-2--2-2--5--5-5--5--5-5--7--7-7-|
|-2--2-2--3--3-3--5--5-5--5--5-5-|
|-0--0-0----------3--3-3---------|
_____________________________________________________________________________________
3. MY DIRECTION

Drop D Tuning (both guitars)

INTRO/CHORUS
Guitar 1&2
|-------------------------------------------------------------|
|-XXXX--------------------------------------------------------|
|-XXXX--------------3-3-X----------------------3-3-x----------|
|-XXXX--3-3--1-1-X--3-3-X--3-3-X---3-3--1-1-x--3-3-x--3-3--8/-|
|-XXXX--3-3--1-1-X--1-1-X--3-3-X---3-3--1-1-x--1-1-x--3-3--8/-|
|-------3-3--1-1-x---------3-3-X---3-3--1-1-x---------3-3--8/-|

|------------------------------------------------|
|------------------------------------------------|
|------------3-3-X----------------------3-3-3----|
|3-3--1-1-X--3-3-X--3-3-X---3-3--1-1-x--3-3-3--3-|
|3-3--1-1-X--1-1-X--3-3-X---3-3--1-1-x--1-1-1--3-|
|3-3--1-1-X---------3-3-X---3-3--1-1-x---------3-|


VERSE
Guitar 1
|-------------------|
|-------------------|
|-------------------| X4
|-------------------|
|---------------1-1-|
|-3-3-3-3--1-1------|

cont'd
|-----------------|
|-----------------|
|-10-10--10-8-7-8-| X2
|-10-10---x-x-x-x-|
|--8--8---8-6-5-6-|
|-----------------|

cont'd
|-----------------------------------|
|-----------------------------------|
|-----------------------------------| X2
|-----------------------------------|
|---------------------------1-1-1-1-|
|-3-3-3-3-3-3-3-3--1-1-1-1----------|


(repeat chorus)


BRIDGE
Guitar 1
e|-----------------------------------|
B|-----------------------------------|
G|-------------33---------------3----| X2
D|-33-----11---33-----333----1--3--1-|
A|-33-----11---11-----333----1--1--1-|
E|-33-----11----------333----1-----1-|

Guitar 2
|---
|---
|--- hit this note
|-3- many times
|-x-
|-3-


VERSE 2
|-------------------|
|-------------------|
|---------------3-3-| X4
|-3-3-3-3--1-1--3-3-|
|-3-3-3-3--1-1--1-1-|
|-3-3-3-3--1-1------|


(play chorus again)


SOLO
Guitar 1 (Guitar 2 plays this along with guitar 1 second time)
|-------------------------|
|-------------------------|
|-10-10-10---8-10-8---8-8-| X2
|-10-10-10---8-10-8-8-8-8-|
|--8--8--8---6--8-6-8-6-6-|
|-------------------8-----|

INTERLUDE
Guitar 1
|-----------------------|
|-----------------------|
|-10-10--8-10-8---8-----| X4
|-10-10--8-10-8-8-8-8-8-|
|--8--8--6--8-6-8-6-8-8-|
|---------------8---8-8-|


cont'd
Guitar 1
|-----------          |------------------          |-----------------|
|-----------          |------------------          |-----------------|
|-5---3---5- X2, then |-5---3---5---3---- X3, then |-5---3---5-5-5-5-|
|-5---3---5-          |-5---3---5---3-3--          |-5---3---5-5-5-5-|
|-3---1---3-          |-3---1---3---1-3--          |-3---1---3-3-3-3-|
|-----------          |---------------3--          |-----------------|

Guitar 2
|---
|---
|-5- hit this note
|-x- many times
|-3-
|---

(play chorus again)
_____________________________________________________________________________________
4. STILL WAITING

Standard Tuning (both guitars)

INTRO
Guitar 1
|--------------------------------------------------------------------|
|--------------------------------------------------------------------|
|-9-9-9-9-9-9-9-9--5-5-5-5-5-5-5-5-----------------------------------|
|-9-9-9-9-9-9-9-9--5-5-5-5-5-5-5-5--5-5-5-5-5-5-5-5--9-9-9-9-9-9-9-9-|
|-7-7-7-7-7-7-7-7--3-3-3-3-3-3-3-3--5-5-5-5-5-5-5-5--9-9-9-9-9-9-9-9-|
|-----------------------------------3-3-3-3-3-3-3-3--7-7-7-7-7-7-7-7-|
pm. . . . . . . .  . . . . . . . .  . . . . . . . .  . . . . . . . .

Guitar 1
|----------------------------------------------------------------------|
|----------------------------------------------------------------------|
|-9-9-9-9-9-9-9-9--5-5-5-5-5-5-5-5-------------------7-7-7-7-7-7-7-7-7-| let last
|-9-9-9-9-9-9-9-9--5-5-5-5-5-5-5-5--5-5-5-5-5-5-5-5--7-7-7-7-7-7-7-7-7-| note ring
|-7-7-7-7-7-7-7-7--3-3-3-3-3-3-3-3--5-5-5-5-5-5-5-5--5-5-5-5-5-5-5-5-5-|
|-----------------------------------3-3-3-3-3-3-3-3--------------------|
pm. . . . . . . .  . . . . . . . .  . . . . . . . .  . . . . . . . .


BRIDGE
Guitar 1
|-------------------------------------------|
|-------------------------------------------|
|-12-11-12---12-11-12---12-11-12-14-12-11-7-| X2
|--x--x--x----x--x--x----x--x--x--x--x--x-x-|
|-10--9-10---10--9-10---10--9-10-12-10--9-5-|
|-------------------------------------------|

Guitar 2
|--------------------------------------------------------------------|
|--------------------------------------------------------------------|
|------------------5-5-5-5-5-5-5-5-------------------5-5-5-5-4-4-4-4-| X2
|-2-2-2-2-2-2-2-2--5-5-5-5-5-5-5-5--2-2-2-2-2-2-2-2--5-5-5-5-5-5-5-5-|
|-2-2-2-2-2-2-2-2--3-3-3-3-3-3-3-3--2-2-2-2-2-2-2-2--3-3-3-3-2-2-2-2-|
|-0-0-0-0-0-0-0-0-------------------0-0-0-0-0-0-0-0------------------|

VERSE
Guitar 1
|------------------------------------------------------------|
|------------------------------------------------------------|
|------------------------------------------------------------|
|-2-2-2-2-2-2-2-2--8/7-8/7-5\7--2-2-2-2-2-2-2-2--5-5-5-5-5-2-|
|-2-2-2-2-2-2-2-2--x/x-x/x-x\x--2-2-2-2-2-2-2-2--x-x-x-x-x-2-|
|-0-0-0-0-0-0-0-0--6/5-6/5-3\5--0-0-0-0-0-0-0-0--3-3-3-3-3-0-|
pm. . . . . . . .               . . . . . . . .    .   .

|---------------------------------------------------------------| X2, but 4th time
|---------------------------------------------------------------| hit the last note
|------------------------------------------------4-4-4-4-4-4/7--| many times into
|-2-2-2-2-2-2-2-2--8/7-8/7-5\7--2-2-2-2-2-2-2-2--x-x-x-x-x-x/x--| chorus, and guitar
|-2-2-2-2-2-2-2-2--x/x-x/x-x\x--2-2-2-2-2-2-2-2--2-2-2-2-2-2/5--| 2 pick scrapes
|-0-0-0-0-0-0-0-0--6/5-6/5-3\5--0-0-0-0-0-0-0-0-----------------| into the chrous
pm. . . . . . . .               . . . . . . . .    . .   .


CHORUS
Guitar 1&2
|--------------------------------------------------------------------|
|--------------------------------------------------------------------|
|-9-9-9-9-9-9-9-9--5-5-5-5-5-5-5-5-----------------------------------| X2
|-9-9-9-9-9-9-9-9--5-5-5-5-5-5-5-5--5-5-5-5-5-5-5-5--9-9-9-9-9-9-9-9-|
|-7-7-7-7-7-7-7-7--3-3-3-3-3-3-3-3--5-5-5-5-5-5-5-5--9-9-9-9-9-9-9-9-|
|-----------------------------------3-3-3-3-3-3-3-3--7-7-7-7-7-7-7-7-|


MODIFIED BRIDGE
Guitar 1 plays same thing from the bridge be4, guitar 2 plays this:
|---------------------------------------------|
|---------------------------------------------|
|-------------5-5-5-----------------5-5-5-4-4-| X1 (listen for timing)
|-2-2-2-------5-5-5-------2-2-2-----5-5-5-5-5-|
|-2-2-2-------3-3-3-------2-2-2-----3-3-3-2-2-|
|-0-0-0-------------------0-0-0---------------|


(play verse again)
(play chorus again)


THING AFTER CHORUS
Guitar 1
|--------------------------------------------------------------------|
|--------------------------------------------------------------------|
|--------------------------------------12--------11-------9-------11-| x2
|---------------------------------------x--------x--------x--------x-|
|--------------------------------------10--------9--------7--------9-|
|--------------------------------------------------------------------|

Guitar 2
|--------------------------------------------------------------------|
|--------------------------------------------------------------------|
|------------------5--5-5--5-5-5-5-------------------4--4-4--2-2-2-2-| X2
|-2--2-2--2-2-2-2--5--5-5--5-5-5-5--5--5-5--5-5-5-5--4--4-4--2-2-2-2-|
|-2--2-2--2-2-2-2--3--3-3--3-3-3-3--5--5-5--5-5-5-5--2--2-2--0-0-0-0-|
|-0--0-0--0-0-0-0-------------------3--3-3--3-3-3-3------------------|


then, Guitar 1&2
|------------------------------------------|
|------------------------------------------|
|-9-9-9-9-9-9-9-9--------------------------| X4
|-9-9-9-9-9-9-9-9--10-10-10-12-12-12-12-12-|
|-7-7-7-7-7-7-7-7--10-10-10-12-12-12-12-12-|
|-------------------8--8--8-10-10-10-10-10-|


INTERLUDE
Guitar 1
|--------------------------------------------------------------------------|
|--------------------------------------------------------------------------|
|-9-9-9-9-9-9-9-9-9-9-9-9-9-9-9-9--12-12-12-12-12-12-12-12--11-11-11-11--7-| X1
|-x-x-x-x-x-x-x-x-x-x-x-x-x-x-x-x---x--x--x--x--x--x--x--x---x--x--x--x--x-|
|-7-7-7-7-7-7-7-7-7-7-7-7-7-7-7-7--10-10-10-10-10-10-10-10---9--9--9--9--5-|
|--------------------------------------------------------------------------|

Guitar 2 (plays in conjunction with guitar 1)
|---------------------------------------------------|
|---------------------------------------------------|
|-9-9-9---------5-5-5-------------------------------| X1
|-9-9-9---------5-5-5----------5-5-5----------9-9-9-|
|-7-7-7---------3-3-3----------5-5-5----------9-9-9-|
|------------------------------3-3-3----------7-7-7-|

THEN
Guitar 1
riff 1                   riff 2
|-------------          |-----------------|
|-------------          |-----------------|
|---4--------- X3, then |-----------------| X1
|-5---5p4-2h4-          |-5-4-4-5-7-5-4-5-|
|-------------          |-----------------|
|-------------          |-----------------|
play this riff order over 3 more times (total of 4 times), but the 4th time instead
of playing riff 2, play this chord many times into the chrous
|---
|---
|-4-
|-4-
|-2-
|---

Guitar 2 (plays in conjunction with the riff order on guitar 1)
|--------------------------------------------|
|--------------------------------------------| X2 (make sure its only)
|----------5-5-5-------------4-4-4-2-2-2-2-2-|    (the first 2 times with )
|-2-2-2----5-5-5----5-5-5----4-4-4-2-2-2-2-2-|    (guitar 1's riff order  )
|-2-2-2----3-3-3----5-5-5----2-2-2-0-0-0-0-0-|
|-0-0-0-------------3-3-3--------------------| also pick scrape into the chorus
pm                                   . .


(play chorus again twice)

END WITH
Guitar 1&2
|------------|
|------------|
|-9-9-9-9-9/-|
|-9-9-9-9-9/-|
|-7-7-7-7-7/-|
|------------|
_____________________________________________________________________________________
5. A.N.I.C.

Standard Tuning (both guitars)

INTRO
|---------------------------|
|------------0--------------|
|----------3----------------| X1
|-3-3-3-3--------------4-4--|
|-3-3-3-3--------------4-4--|
|-2-2-2-2--------------2-2--|


VERSE
|--------------------------------------|
|--------------------------------------|
|---------------------7-7-7-7--4-4-4-4-| X2
|-4-4-4-4--7-7-7-7----7-7-7-7--4-4-4-4-|
|-4-4-4-4--7-7-7-7----5-5-5-5--2-2-2-2-|
|-2-2-2-2--5-5-5-5---------------------|


CHORUS
|----------------------------------------|
|----------------------------------------|
|-----------------------------------4----| X2
|--2-x-x-x-x--2-x-x-x-x--2-x-x-x-x--4--5-|
|--2-x-x-x-x--2-x-x-x-x--2-x-x-x-x--2--5-|
|--0-x-x-x-x--0-x-x-x-x--0-x-x-x-x-----3-|

(play verse again)

(play chorus again)

(play verse again)

OUTRO
|-------------------------------------------------------|
|------------------------------------12b--10-12p10-12~/-|
|-------------------7-7-7-------------------------------|
|-4-4-4-4--7-7-7-7--7-7-7-7-9---------------------------|
|-4-4-4-4--7-7-7-7--5-5-5-7-9---------------------------|
|-2-2-2-2--5-5-5-5--------5-7---------------------------|
_____________________________________________________________________________________
6. NO BRAINS

Drop D Tuning (both guitars)

INTRO/VERSE
guitar 1
|---------------------------------------------------------|
|---------------------------------------------------------|
|------------------------------2-2-2-2-2------------------| X4
|-4-4-4-4-4--4---0-0-0-0-0-0---2-2-2-2-2----2-2-2-2-2-2-2-|
|-4-4-4-4-4--4---0-0-0-0-0-0---0-0-0-0-0----2-2-2-2-2-2-2-|
|-4-4-4-4-4--4---0-0-0-0-0-0----------------2-2-2-2-2-2-2-|

PRE-CHORUS
guitar 1
|-------------------------------|
|-------------------------------|
|-------------------------2---4-| X1
|-0-------2-------4-------2---4-|
|-0-------2-------4-------0---2-|
|-0-------2-------4-------------|

CHORUS
guitar 1
|-----------------------------------------------------------------------|
|-----------------------------------------------------------------------|
|-----------------------------------------------------------------------| X2
|-4-4-4-4-4-4-4-4--0-0-0-0-2-2-2-2--2-2-2-2--0-0-0-0--7-7-7-7--9-9-9-9--|
|-4-4-4-4-4-4-4-4--0-0-0-0-2-2-2-2--2-2-2-2--0-0-0-0--7-7-7-7--9-9-9-9--|
|-4-4-4-4-4-4-4-4--0-0-0-0-2-2-2-2--2-2-2-2--0-0-0-0--7-7-7-7--9-9-9-9--|

guitar 2
|-------------------------------------------------------------------------|
|-------------------------------------------------------------------------|
|-11--11-11--6--6-6--7--7-7--9--9-9--9--9-9--6--6-6--14--14-14--13--13-13-| X2
|--x---x--x--x--x-x--x--x-x--x--x-x--x--x-x--x--x-x---x---x--x---x---x--x-|
|--9---9--9--4--4-4--5--5-5--7--7-7--7--7-7--4--4-4--12--12-12--11--11-11-|
|-------------------------------------------------------------------------|


BRIDGE
guitar 1
|------------------|
|------------------|
|------------------| X4
|-4-xxxx-4-xxx-4-x-|
|-4-xxxx-4-xxx-4-x-|
|-4-xxxx-4-xxx-4-x-|


(play verse again)

VERSE 2
|-----------------------------------------|
|-----------------------------------------|
|-----------------------------------------| X2
|-4-4--4-4--4--4-4-4-4-4---4--4-4---4-4-4-|
|-4-4--4-4--4--4-4-4-4-4---4--4-4---4-4-4-|
|-4-4--4-4--4--4-4-4-4-4---4--4-4---4-4-4-|
pm. .  . .  .  . . . . .   .  . .   . . .


(play pre chorus again)

(play chorus again)

POST CHORUS
guitar 1
|-----------------------------------------------|
|-----------------------------------------------|
|-----------------------------------------------| X2
|-0-0-0-0--2-2-2-2--4-xxx-4-xxx-4-xxx-4-xxx-7-2-|
|-0-0-0-0--2-2-2-2--4-xxx-4-xxx-4-xxx-4-xxx-7-2-|
|-0-0-0-0--2-2-2-2--4-xxx-4-xxx-4-xxx-4-xxx-7-2-|

guitar 2
|------------------------------------------------|
|------------------------------------------------|
|-------------------11---11----11----11---14-9---|
|-0-0-0-0--2-2-2-2---x----x-----x-----x----x--x--|
|-0-0-0-0--2-2-2-2---9----9-----9-----9---12-7---|
|-0-0-0-0--2-2-2-2-------------------------------|

cont'd
guitar 1
|------------------------------------------------------------------------|
|------------------------------------------------------------------------|
|-11-13-14-16-11-13-14-16-18-16-14-13-14-13-11-9-11-13-14-16-11-13-14-16-|
|------------------------------------------------------------------------|
|------------------------------------------------------------------------|
|------------------------------------------------------------------------|

guitar 2
|------------------------------------------------------------------|
|------------------------------------------------------------------|
|-------------------------2-2-2-2----------------------------------|
|-0-0-0-0-2-2-2-2-4-4-4-4-2-2-2-2-0-0-0-0-2-2-2-2-4444444444444444-|
|-0-0-0-0-2-2-2-2-4-4-4-4-0-0-0-0-0-0-0-0-2-2-2-2-4444444444444444-|
|-0-0-0-0-2-2-2-2-4-4-4-4---------0-0-0-0-2-2-2-2-4444444444444444-|
pm                                                ................

SOLO
Guitar 1
|-----------------------------------------------------------------------------|
|-10-9-9-9-12-9-9-9-10-9-9-9-12-9-9-9--12b(13)-12b-12-10-9-10-9-10-9-10b(11)r-|
|-----------------------------------------------------------------------------|
|-----------------------------------------------------------------------------|
|-----------------------------------------------------------------------------|
|-----------------------------------------------------------------------------|

cont'd
|-0-2-0-2-0-2-0-2-0/-19-19-19-19-21b(23)-21-19--17-19-17-19-17-21b(23)-|
|----------------------------------------------------------------------|
|----------------------------------------------------------------------|
|----------------------------------------------------------------------|
|----------------------------------------------------------------------|
|----------------------------------------------------------------------|

Guitar 2
|--------------------------------------------------------------------|
|--------------------------------------------------------------------|
|--------------------------------------------------------------------| X2
|-4-4-4-4-4-4-4-4--0-0-0-0-0-0-0-0--7-7-7-7-7-7-7-7--2-2-2-2-2-2-2-2-|
|-4-4-4-4-4-4-4-4--0-0-0-0-0-0-0-0--7-7-7-7-7-7-7-7--2-2-2-2-2-2-2-2-|
|-4-4-4-4-4-4-4-4--0-0-0-0-0-0-0-0--7-7-7-7-7-7-7-7--2-2-2-2-2-2-2-2-|


INTERLUDE
guitar 2
|-----------------------------------------------------------------|
|-----------------------------------------------------------------|
|-----------------------------------------------------------------| X4
|-4-4-4-4-4-4-4-4-0-0-0-0-0-0-0-0-7-7-7-7-7-7-7-7-2-2-2-2-2-2-2-2-|
|-4-4-4-4-4-4-4-4-0-0-0-0-0-0-0-0-7-7-7-7-7-7-7-7-2-2-2-2-2-2-2-2-|
|-4-4-4-4-4-4-4-4-0-0-0-0-0-0-0-0-7-7-7-7-7-7-7-7-2-2-2-2-2-2-2-2-|
pm. . . . . . . . . . . . . . . . . . . . . . . . . . . . . . . .


(play chorus again)

(play post chorus again)

END WITH
Guitar 1
|-------------------------------------------------|
|-------------------------------------------------|
|-------------------------------------------------|
|-0-0-0-0--2-2-2-2--4-xxx-4-xxx-4-xxx-4-xxx-4-4-4-|
|-0-0-0-0--2-2-2-2--4-xxx-4-xxx-4-xxx-4-xxx-4-4-4-|
|-0-0-0-0--2-2-2-2--4-xxx-4-xxx-4-xxx-4-xxx-4-4-4-|

guitar 2
|---------------------------------------------------|
|---------------------------------------------------|
|-------------------11----11---11----11----11-11-11-|
|-0-0-0-0--2-2-2-2---x-----x----x-----x-----x--x--x-|
|-0-0-0-0--2-2-2-2---9-----9----9-----9-----9--9--9-|
|-0-0-0-0--2-2-2-2----------------------------------|
_____________________________________________________________________________________
7. ALL MESSED UP

Standard Tuning (both guitars)

INTRO/BRIDGE
Guitar 2
|-------------------------------------------------------|
|-------------------------------------------------------|
|----------------8-8-8----------9-9-9----------11-11-11-| X2
|-9-9-9----------9-9-9----------9-9-9----------11-11-11-|
|-9-9-9----------6-6-6----------7-7-7-----------9--9--9-|
|-7-7-7-------------------------------------------------|

Guitar 1
|--------7-7--------------7-7-------------7-7------------7-7----|
|-----------7-7--------------7-7-------------7-7------------7-7-|
|---------------------------------------------------------------| X2
|---------------------------------------------------------------|
|---------------------------------------------------------------|
|---------------------------------------------------------------|

PRE-VERSE FILL
Guitar 1&2
|--------------------------------------|
|--------------------------------------|
|-9/4--4-4-4-4-4-4-4-4-4-4-4-4-4-4-4-4-| gently release pm
|-9/4--4-4-4-4-4-4-4-4-4-4-4-4-4-4-4-4-|
|-7/2--2-2-2-2-2-2-2-2-2-2-2-2-2-2-2-2-|
|--------------------------------------|
pm     . . . . . . . . . . . .


VERSE
Guitar 1
|----------------------------------|
|----------------------------------|
|------------------4-4-4-4-4-4-4-4-| X3, then
|-2-2-2-2-2-2-2-2--4-4-4-4-4-4-4-4-|
|-2-2-2-2-2-2-2-2--2-2-2-2-2-2-2-2-|
|-0-0-0-0-0-0-0-0------------------|
[ Tab from: http://www.guitaretab.com/s/sum-41/32835.html ]
cont'd
Guitar 1
|----------------------------------------------------|
|----------------------------------------------------|
|-2-2-2-2-2-2-2-2------------------------------------|
|-2-2-2-2-2-2-2-2--4-4-4-4-4-4-4-4-4-4-4-4-4-4-4-4-4-|
|-0-0-0-0-0-0-0-0--4-4-4-4-4-4-4-4-4-4-4-4-4-4-4-4-4-|
|------------------2-2-2-2-2-2-2-2-2-2-2-2-2-2-2-2-2-|
pm                 . . . . . . . . . . . . . . . . .


CHORUS
Guitar 1&2
|--------------------------------------------------------------------|
|--------------------------------------------------------------------|
|------------------4-4-4-4-4-4-4-4-------------------2-2-2-2-2-2-2-2-|
|-2-2-2-2-2-2-2-2--4-4-4-4-4-4-4-4--2-2-2-2-2-2-2-2--2-2-2-2-2-2-2-2-|
|-2-2-2-2-2-2-2-2--2-2-2-2-2-2-2-2--2-2-2-2-2-2-2-2--0-0-0-0-0-0-0-0-|
|-0-0-0-0-0-0-0-0-------------------0-0-0-0-0-0-0-0------------------|

cont'd
Guitar 1&2
|----------------------------------|
|----------------------------------|
|-4-4-4-4-4-4-4-4--2-2-2-2-2-2-2-2-| X2 (the whole chorus, )
|-4-4-4-4-4-4-4-4--2-2-2-2-2-2-2-2-|    (not just this part)
|-2-2-2-2-2-2-2-2--0-0-0-0-0-0-0-0-|
|----------------------------------|


(play bridge again)

(play verse again, but put a palm mute on every 1st )
(and 2nd beat and release the palm mute for the 3rd )

(play chorus again)

CHORUS ADD-ON
Guitar 1&2
|-------------          |---------------------------------|
|-------------          |---------------------------------|
|------------- X3, then |---------------------------------|
|-7-7-7-7-7-6-          |-4-4-4-4-4-4-4-4-4-4-4-4-4-4-4-4-|
|-7-7-7-7-7-6-          |-4-4-4-4-4-4-4-4-4-4-4-4-4-4-4-4-|
|-5-5-5-5-5-4-          |-2-2-2-2-2-2-2-2-2-2-2-2-2-2-2-2-|


INTERLUDE
Guitar 2
|--------------------------------------------------------------------|
|--------------------------------------------------------------------|
|-9-9-9-9-9-9-9-9--6-6-6-6-6-6-6-6-----------------------------------| X4
|-9-9-9-9-9-9-9-9--6-6-6-6-6-6-6-6--7-7-7-7-7-7-7-7--9-9-9-9-9-9-9-9-|
|-7-7-7-7-7-7-7-7--4-4-4-4-4-4-4-4--7-7-7-7-7-7-7-7--9-9-9-9-9-9-9-9-|
|-----------------------------------5-5-5-5-5-5-5-5--7-7-7-7-7-7-7-7-|

Guitar 1 (comes in after guitar 2 plays above riff twice)
|--------------------------------------------------------------------|
|--------------------------------------------------------------------|
|-9-9-9-9-9-9-9-9--6-6-6-6-6-6-6-6-----------------------------------| X2
|-x-x-x-x-x-x-x-x--x-x-x-x-x-x-x-x--7-7-7-7-7-7-7-7--9-9-9-9-9-9-9-9-|
|-7-7-7-7-7-7-7-7--4-4-4-4-4-4-4-4--x-x-x-x-x-x-x-x--x-x-x-x-x-x-x-x-|
|-----------------------------------5-5-5-5-5-5-5-5--7-7-7-7-7-7-7-7-|

cont'd
Guitar 1
|---------------------------------------------------------------|
|---------------------------------------------------------------|
|---------------------------------------------------------------|
|-7-9-9-9-9-9-9-7-9-9-9-9-9-9-7-9-9-9-9-9-9-9-9-9-9-9-9-9-9-9-9-|
|-x-x-x-x-x-x-x-x-x-x-x-x-x-x-x-x-x-x-x-x-x-x-x-x-x-x-x-x-x-x-x-|
|-5-7-7-7-7-7-7-5-7-7-7-7-7-7-5-7-7-7-7-7-7-7-7-7-7-7-7-7-7-7-7-|


SOLO
Guitar 2
|-----------------------------------|
|-----------------------------------|
|-4-4-----4-2-----4-4-----4-2----4~-| X4
|-4-4--2--4-2-6---4-4--2--4-2-6--4~-|
|-2-2--2--2-0-6---2-2--2--2-0-6--2~-|
|------0------4--------0------4-----|

Guitar 1 (comes in after guitar 2 has played above riff twice)
Plays with some effects pedal too!!!
|-7-7-7-------7----7-7-7-------7---7~-|
|-------7-7-7---7--------7-7-7---7----|
|-------------------------------------| X2
|-------------------------------------|
|-------------------------------------|
|-------------------------------------|


(play verse again)

(play chorus again)

(play bridge again)

END WITH
Guitar 1&2
|------------------------------------|
|------------------------------------|
|------------------------------------| (gently release pm)
|-9-9-9-9-9-9-9-9-9-9-9-9-9-9-9-9-9/-|
|-9-9-9-9-9-9-9-9-9-9-9-9-9-9-9-9-9/-|
|-7-7-7-7-7-7-7-7-7-7-7-7-7-7-7-7-7/-|
pm. . . . . . . . . . . .
_____________________________________________________________________________________
8. MR. AMSTERDAM

Drop D Tuning (Both guitars)

INTRO
guitar 2
|---------------------------------|
|---------------------------------|
|---------------------------------|
|-1-----1-1-1-1-----1-1-1-1----1--|
|-1-----1-1-1-1-----1-1-1-1----1--|
|-1-----1-1-1-1-----1-1-1-1----1--|

Guitar 1 (listen for when to come in)
|-------------------------|
|-------------------------|
|-11---10---8---11---10-7-|
|--x----x---x----x----x-x-|
|--9----8---6----9----8-5-|
|-------------------------|


BRIDGE
Guitar 2
|--------------------------------------------------------------------|
|--------------------------------------------------------------------|
|-8-8-8-8-8-8-8-8--4-4-4-4-4-4-4-4-------------------6-6-6-6-6-6-6-6-| X2
|-8-8-8-8-8-8-8-8--4-4-4-4-4-4-4-4--4-4-4-4-4-4-4-4--6-6-6-6-6-6-6-6-|
|-6-6-6-6-6-6-6-6--2-2-2-2-2-2-2-2--4-4-4-4-4-4-4-4--4-4-4-4-4-4-4-4-|
|-----------------------------------4-4-4-4-4-4-4-4------------------|

Guitar 1
|------------------------------------------------------------------|
|------------------------------------------------------------------|
|-8-10-11-10-8-7--8-10-11-10-8-7--13-11-10-11-10--13-11-10-11-10-7-| X2
|-x--x--x--x-x-x--x--x--x--x-x-x---x--x--x--x--x---x--x--x--x--x-x-|
|-6--8--9--8-6-5--6--8--9--8-6-5--11--9--8--9--8--11--9--8--9--8-5-|
|------------------------------------------------------------------|


VERSE
Guitar 2 (fast palm mutes)
|---------------------------------|
|---------------------------------|
|-8-8-8-8-8-8-8-8-8-8-8-8-8-8-8-8-| X4
|-8-8-8-8-8-8-8-8-8-8-8-8-8-8-8-8-|
|-6-6-6-6-6-6-6-6-6-6-6-6-6-6-6-6-|
|---------------------------------|
pm. . . . . . . . . . . . . . . .

Guitar 1 (listen for when to come in)
|--------------------------------|
|--------------------------------|
|-----------7-8--------------7-8-|
|-----------x-x--------------x-x-|
|-----------5-6--------------5-6-|
|--------------------------------|

then
Guitar 2 (fast palm mutes)
|--------------------------------------------------------------------|
|--------------------------------------------------------------------|
|-8-8-8-8-8-8-8-8--6-6-6-6-6-6-6-6--4-4-4-4-4-4-4-4------------------| X2
|-8-8-8-8-8-8-8-8--6-6-6-6-6-6-6-6--4-4-4-4-4-4-4-4--4-4-4-4-4-4-4-4-|
|-6-6-6-6-6-6-6-6--4-4-4-4-4-4-4-4--2-2-2-2-2-2-2-2--4-4-4-4-4-4-4-4-|
|----------------------------------------------------4-4-4-4-4-4-4-4-|
pm. . . . . . . .  . . . . . . . .  . . . . . . . .  . . . . . . . .


PRE-CHORUS
Guitar 1&2
|------------------------------------------|
|------------------------------------------|
|-8-x-x-x-x--6--6-6-6--4-x-x-x-x--6--6-6-6-| X2
|-8-x-x-x-x--6--6-6-6--4-x-x-x-x--6--6-6-6-|
|-6-x-x-x-x--4--4-4-4--2-x-x-x-x--4--4-4-4-|
|------------------------------------------|

then
Guitar 1&2
|----------------------------------------------------------------------------|
|----------------------------------------------------------------------------|
|------------------------------------------------------------6-6-6-6-6-6-6-6-| X2
|-1-1-1-1-1-1-1-1--1---1-1-1-1-1-1-1-1--1---4-4-4-4-4-4-4-4--6-6-6-6-6-6-6-6-|
|-1-1-1-1-1-1-1-1--1---1-1-1-1-1-1-1-1--1---4-4-4-4-4-4-4-4--4-4-4-4-4-4-4-4-|
|-1-1-1-1-1-1-1-1--1---1-1-1-1-1-1-1-1--1---4-4-4-4-4-4-4-4------------------|
pm. . . . . . . .       . . . . . . . .


CHORUS
Guitar 1&2
|------------------------------------------|
|------------------------------------------|
|-8-x-x-x-x--6--6-6-6--4-x-x-x-x--6--6-6-6-| X4
|-8-x-x-x-x--6--6-6-6--4-x-x-x-x--6--6-6-6-|
|-6-x-x-x-x--4--4-4-4--2-x-x-x-x--4--4-4-4-|
|------------------------------------------|

then
Guitar 1&2
|-----------------------------------------|
|-----------------------------------------|
|-8-x-x-x-x-8--8-8-8--4-x-x-x-x--6--6-6-6-| X2
|-8-x-x-x-x-8--8-8-8--4-x-x-x-x--6--6-6-6-|
|-6-x-x-x-x-6--6-6-6--2-x-x-x-x--4--4-4-4-|
|-----------------------------------------|


(play bridge again)

(play verse again)

PRE-CHORUS
Guitar 1&2
|---------------------------------|
|---------------------------------|
|-8--8-8--6--6-6--4--4-4--6-6-6-6-| X2
|-8--8-8--6--6-6--4--4-4--6-6-6-6-|
|-6--6-6--4--4-4--2--2-2--4-4-4-4-|
|---------------------------------|

then
Guitar 1&2
|----------------------------------------------------------------------------|
|----------------------------------------------------------------------------|
|------------------------------------------------------------6-6-6-6-6-6-6-6-| X2
|-1-1-1-1-1-1-1-1--1---1-1-1-1-1-1-1-1--1---4-4-4-4-4-4-4-4--6-6-6-6-6-6-6-6-|
|-1-1-1-1-1-1-1-1--1---1-1-1-1-1-1-1-1--1---4-4-4-4-4-4-4-4--4-4-4-4-4-4-4-4-|
|-1-1-1-1-1-1-1-1--1---1-1-1-1-1-1-1-1--1---4-4-4-4-4-4-4-4------------------|
pm. . . . . . . .       . . . . . . . .


(play chorus again)


SOLO
Guitar 2
|---------------------------------------------------------------|
|---------------------------------------------------------------|
|---------------------------------------------------------------| X3
|-1-1-1-1-1-1-1---1-1-1-1-1-1-1---1-1-1-1-1-1-1---1-1-1-1-1-1-1-|
|-1-1-1-1-1-1-1---1-1-1-1-1-1-1---1-1-1-1-1-1-1---1-1-1-1-1-1-1-|
|-1-1-1-1-1-1-1---1-1-1-1-1-1-1---1-1-1-1-1-1-1---1-1-1-1-1-1-1-|
pm. . . . . . .   . . . . . . .   . . . . . . .   . . . . . . .

Guitar 1
|-----------------------------------------------|
|-----------------------------------------------|
|-----------------------------------------------|
|-1-------7-6-4--1----1-1-------7-6-4--1----1-1-|
|-1-------7-6-4--1----1-1-------7-6-4--1----1-1-|
|-1-------7-6-4--1----1-1-------7-6-4--1----1-1-|

then
Guitar 1&2
|------------|
|------------|
|------------|
|-1--1--1--1-|
|-1--1--1--1-|
|-1--1--1--1-|


INTERLUDE
Guitar 2
|---------------------------------|
|---------------------------------|
|---------------------------------| X3, then pause for
|-x-1-x-1-x-1-x-1-x-1-x-1-x-1-x-1-| a measure, then play
|-x-1-x-1-x-1-x-1-x-1-x-1-x-1-x-1-| whole thing over again
|-x-1-x-1-x-1-x-1-x-1-x-1-x-1-x-1-|

Guitar 1
|-----------------------------------------------------------------|
|-----------------------------------------------------------------|
|-x-8-x-8-x-8-x-8-x-8-x-8-13-11-10--x-8-x-8-x-8-x-8-x-8-x-7-7-7-7-|
|-x-x-x-x-x-x-x-x-x-x-x-x--x--x--x--x-x-x-x-x-x-x-x-x-x-x-x-x-x-x-|
|-x-6-x-6-x-6-x-6-x-6-x-6-11--9--8--x-6-x-6-x-6-x-6-x-6-x-5-5-5-5-|
|-----------------------------------------------------------------|

cont'd
|--------------------------------------------------------------|
|--------------------------------------------------------------|
|-x-8-x-8-x-8-x-8-x-8-x-8-13-11-10--x-x-x-x-8--8--x-x-x-x-6--7-| X2
|-x-x-x-x-x-x-x-x-x-x-x-x--x--x--x--x-x-x-x-x--x--x-x-x-x-x--x-|
|-x-6-x-6-x-6-x-6-x-6-x-6-11--9--8--x-x-x-x-6--6--x-x-x-x-4--5-|
|--------------------------------------------------------------|


(play bridge again)


OUTRO
Guitar 2
|---------------------------|
|---------------------------|
|-8---8---8---8-8-8-8-8-8-9-|
|-8---8---8---8-8-8-8-8-8-9-|
|-6---6---6---6-6-6-6-6-6-7-|
|---------------------------|

Guitar 1
|---------------------------|
|---------------------------|
|-8/----------------------9-|
|-x/----------------------x-|
|-6/----------------------7-|
|---------------------------|
_____________________________________________________________________________________
9. THANKS FOR NOTHING

Drop D Tuning (both guitars)

INTRO
Guitar 2
|---------------------------------------------------|
|---------------------------------------------------|
|-7----7--7-x--3---3--3-x---------------5----5--5-x-|
|-7----7--7-x--3---3--3-x--3----3--3-x--5----5--5-x-|
|-5----5--5-x--1---1--1-x--3----3--3-x--3----3--3-x-|
|--------------------------3----3--3-x--------------|

cont'd
|-----------------------------------------|
|-----------------------------------------|
|-7----7--7-x--3---3--3-x---------------5-| let ring
|-7----7--7-x--3---3--3-x--3----3--3-x--5-|
|-5----5--5-x--1---1--1-x--3----3--3-x--3-|
|--------------------------3----3--3-x----|


BRIDGE
Guitar 2
|--------------------------------------------------------------------|
|--------------------------------------------------------------------|
|-7-7-7-7-7-7-7-7--3-3-3-3-3-3-3-3-------------------5-5-5-5-5-5-5-5-| X2
|-x-x-x-x-x-x-x-x--x-x-x-x-x-x-x-x--3-3-3-3-3-3-3-3--x-x-x-x-x-x-x-x-|
|-5-5-5-5-5-5-5-5--1-1-1-1-1-1-1-1--x-x-x-x-x-x-x-x--3-3-3-3-3-3-3-3-|
|-----------------------------------3-3-3-3-3-3-3-3------------------|

Guitar 1
|----------------------------------------|
|----------------------------------------|
|----------------------------------------| X2
|-0-2-3-3------2-3-3----2-3-3--5-5-3-2---|
|----------1-1-------------------------3-|
|---------------------3------------------|


VERSE
Guitar 1
|------------------------------------------|
|------------------------------------------|
|-7-7-------3-3--3---------------5-x-x-x-x-| X2
|-7-7-------3-3--3-----3-3-------5-x-x-x-x-|
|-5-5-------1-1--1-----3-3-------3-x-x-x-x-|
|----------------------3-3-----------------|


PRE-CHORUS
Guitar 1&2
|--------------------------------------------------------------------|
|--------------------------------------------------------------------|
|-7-7-7-7-7-7-7-7--3-3-3-3-3-3-3-3-------------------5-5-5-5-5-5-5-5-| X2
|-7-7-7-7-7-7-7-7--3-3-3-3-3-3-3-3--3-3-3-3-3-3-3-3--5-5-5-5-5-5-5-5-|
|-5-5-5-5-5-5-5-5--1-1-1-1-1-1-1-1--3-3-3-3-3-3-3-3--3-3-3-3-3-3-3-3-|
|-----------------------------------3-3-3-3-3-3-3-3------------------|


CHORUS
Guitar 2
|--------------------------------------------------------------------|
|--------------------------------------------------------------------|
|-7-7-7-7-7-7-7-7--3-3-3-3-3-3-3-3-------------------5-5-5-5-5-5-5-5-| X2
|-7-7-7-7-7-7-7-7--3-3-3-3-3-3-3-3--3-3-3-3-3-3-3-3--5-5-5-5-5-5-5-5-|
|-5-5-5-5-5-5-5-5--1-1-1-1-1-1-1-1--3-3-3-3-3-3-3-3--3-3-3-3-3-3-3-3-|
|-----------------------------------3-3-3-3-3-3-3-3------------------|

Guitar 1
|---------------------------------------------------------------------|
|---------------------------------------------------------------------|
|-----------------------------------------------------5-5-5-5-5-3-3-5-| X2
|-0-0-0-0-0-0-0-0--8-8-8-8-8-7-8-10--3-3-3-3-3-3-3-3--5-5-5-5-5-3-3-5-|
|-0-0-0-0-0-0-0-0--8-8-8-8-8-7-8-10--3-3-3-3-3-3-3-3--3-3-3-3-3-1-1-3-|
|-0-0-0-0-0-0-0-0--8-8-8-8-8-7-8-10--3-3-3-3-3-3-3-3------------------|


(play bridge again)

(play verse again)

(play chorus again)

SOLO
Guitar 1
|--------------------|
|--------------------|
|-7----10--5----3----| X2
|-7----10--5----3--3-|
|-5-----8--3----1--3-|
|------------------3-|

Guitar 2 (comes in after guitar 1 ha played above riff twice)
|-----------------------------|
|-----------------------------|
|-7-7---------5-5----3-3------|
|-7-7---------5-5----3-3--3-3-|
|-5-5---------3-3----1-1--3-3-|
|-------------------------3-3-|
pm. .         . .    . .  . .


INTERLUDE
Guitar 2 (fast palm mutes)
|-----------------------------------------------------------------|
|-----------------------------------------------------------------|
|-7-7-7-7-7-7-7-7--3-3-3-3-3-3-3-3-------------------5-5-5--5-5-5-| X2
|-7-7-7-7-7-7-7-7--3-3-3-3-3-3-3-3--3-3-3-3-3-3-3-3--5-5-5--5-5-5-|
|-5-5-5-5-5-5-5-5--1-1-1-1-1-1-1-1--3-3-3-3-3-3-3-3--3-3-3--3-3-3-|
|-----------------------------------3-3-3-3-3-3-3-3---------------|
pm. . . . . . . .  . . . . . . . .  . . . . . . . .  . .    . .

cont'd
|--------------------------------------------------------------------|
|--------------------------------------------------------------------|
|-7-7-7-7-7-7-7-7--3-3-3-3-3-3-3-3-------------------5-5-5-5-5-5-5-5-| X2
|-7-7-7-7-7-7-7-7--3-3-3-3-3-3-3-3--3-3-3-3-3-3-3-3--5-5-5-5-5-5-5-5-|
|-5-5-5-5-5-5-5-5--1-1-1-1-1-1-1-1--3-3-3-3-3-3-3-3--3-3-3-3-3-3-3-3-|
|-----------------------------------3-3-3-3-3-3-3-3------------------|
pm. . . . . . . .  . . . . . . . .  . . . . . . . .  . . . . . . . .

Guitar 1
|-------------------------------------------------|
|-------------------------------------------------|
|-------------------------------------------------|
|-0-2-3-3p2----3-2-2h3----2-3-3p2--5-5--5--5-5--5-|
|------------1------------------------------------|
|-----------------------3-------------------------|
pm                                 . .     . .

cont'd
|-------------------------------------------------|
|-------------------------------------------------|
|-------------------------------------------------| X2
|-0-2-3-3p2----3-2-2h3----2-3-3p2-----------------|
|------------1------------------------------------|
|-----------------------3-------------------------|


(play chorus again)

(play bridge again)

END ON
Guitar 2
|---
|---
|-7-
|-7-
|-5-
|---
_____________________________________________________________________________________
10. HYPER-INSOMNIA-PARA-CONDROID

Drop-D Tuning (Both guitars)

INTRO
Guitar 2
|--------------------------------------------------------|
|--------------------------------------------------------|
|--------7-7-7---------7-7-7---------7-7-7---------7-7-7-| X4
|-0-0-0--x-x-x--0-0-0--x-x-x--0-0-0--x-x-x--0-0-0--x-x-x-|
|-x-x-x--5-5-5--x-x-x--5-5-5--x-x-x--5-5-5--x-x-x--5-5-5-|
|-0-0-0---------0-0-0---------0-0-0---------0-0-0--------|
pm. .    . .    . .    . .    . .    . .    . .    . .

Guitar 1 (comes in after Guitar 1 played intro twice)
|-----            |--------------------------------------------------|
|-----            |--------------------------------------------------|
|----- first time |--------------------------------------------------| X2
|-7-5- only, then |-0-0-x-x-x-x--5-5-x-x-x-x--8-8-x-x-x-x--7-7-10-12-|
|-7-5-            |-0-0-x-x-x-x--5-5-x-x-x-x--8-8-x-x-x-x--7-7-10-12-|
|-7-5-            |-0-0-x-x-x-x--5-5-x-x-x-x--8-8-x-x-x-x--7-7-10-12-|


VERSE
Guitar 1&2
|---
|---
|--- let ring
|-0-
|-0-
|-0-

then
|---------------------------------------------------------------|
|---------------------------------------------------------------|
|---------------------------------------------------------------|
|-0-0-0-0-0-0-0-0--5-5-5-5-5-5-5-5--8-8-8-8-8-8-8-8-7-7-7-10-12-|
|-0-0-0-0-0-0-0-0--5-5-5-5-5-5-5-5--8-8-8-8-8-8-8-8-7-7-7-10-12-|
|-0-0-0-0-0-0-0-0--5-5-5-5-5-5-5-5--8-8-8-8-8-8-8-8-7-7-7-10-12-|

cont'd
|-----------------------------------------------|
|-----------------------------------------------|
|-----------------------------------------------|
|-0-0-0-0-0-0-0-0--5-5-5-5-5-5-5-5--8-8-x-x-x-x-|
|-0-0-0-0-0-0-0-0--5-5-5-5-5-5-5-5--8-8-x-x-x-x-|
|-0-0-0-0-0-0-0-0--5-5-5-5-5-5-5-5--8-8-x-x-x-x-|


CHORUS
Guitar 1&2
|--------------------------------------------------------------------|
|--------------------------------------------------------------------|
|-----------------------------------3-3-3-3-3-3-3-3--5-5-5-5-7-7-7-7-| X4
|-0-0-0-0-0-0-0-0--3-3-3-3-3-3-3-3--3-3-3-3-3-3-3-3--5-5-5-5-7-7-7-7-|
|-0-0-0-0-0-0-0-0--3-3-3-3-3-3-3-3--1-1-1-1-1-1-1-1--3-3-3-3-5-5-5-5-|
|-0-0-0-0-0-0-0-0--3-3-3-3-3-3-3-3-----------------------------------|


VERSE 2
Guitar 1&2
|---
|---
|--- let ring
|-0-
|-0-
|-0-

then
|---------------------------------------------------------------|
|---------------------------------------------------------------|
|---------------------------------------------------------------|
|-0-0-0-0-0-0-0-0--5-5-5-5-5-5-5-5--8-8-8-8-8-8-8-8-7-7-7-10-12-|
|-0-0-0-0-0-0-0-0--5-5-5-5-5-5-5-5--8-8-8-8-8-8-8-8-7-7-7-10-12-|
|-0-0-0-0-0-0-0-0--5-5-5-5-5-5-5-5--8-8-8-8-8-8-8-8-7-7-7-10-12-|

cont'd
|------------------------------------------------------------|
|------------------------------------------------------------|
|------------------------------------------------------------|
|-0-0-0-0-0-0-0-0--5-5-5-5-5-5-5-5--8-8-x-x-x-x--8-8-x-x-x-x-|
|-0-0-0-0-0-0-0-0--5-5-5-5-5-5-5-5--8-8-x-x-x-x--8-8-x-x-x-x-|
|-0-0-0-0-0-0-0-0--5-5-5-5-5-5-5-5--8-8-x-x-x-x--8-8-x-x-x-x-|


(Play chorus again)


INTERLUDE
Guitar 2
|----------------------------------------------------------------------------|
|----------------------------------------------------------------------------|
|-7-7-7-7-7-7-7-7--10-10-10-10-10-10-10-10--9-9-9-9-9-9-9-9--5-5-5-5-5-5-5-5-| X2
|-7-7-7-7-7-7-7-7--10-10-10-10-10-10-10-10--9-9-9-9-9-9-9-9--5-5-5-5-5-5-5-5-|
|-5-5-5-5-5-5-5-5---8--8--8--8--8--8--8--8--7-7-7-7-7-7-7-7--3-3-3-3-3-3-3-3-|
|----------------------------------------------------------------------------|

Guitar 1 (comes in after guitar one has played above part once)
|------------------------------------------------------------------------------------|
|------------------------------------------------------------------------------------|
|-7-7-7-7-7-7-7-7--10-10-10-10-10-10-10-10--9-9-9-9-9-9-9-9--14-14-14-14-14-14-14-14-|
|-x-x-x-x-x-x-x-x---x--x--x--x--x--x--x--x--x-x-x-x-x-x-x-x---x--x--x--x--x--x--x--x-|
|-5-5-5-5-5-5-5-5---8--8--8--8--8--8--8--8--8-8-8-8-8-8-8-8--12-12-12-12-12-12-12-12-|
|------------------------------------------------------------------------------------|


SOLO (not really a solo but im calling it that)
Guitar 2
|---
|---
|-7- hits this chord
|-x- many times throughout
|-5- the solo
|---

Guitar 1
|-----------------------------------------------------------------------------------|
|-----------------------------------------------------------------------------------|
|-9-9-9-10-10-10-9--9-9-9-10-10-10-12--9-9-9-10-10-10-9--9-9-9-10-10-10-12-12-12-12-|
|-9-9-9-10-10-10-9--9-9-9-10-10-10-12--9-9-9-10-10-10-9--9-9-9-10-10-10-12-12-12-12-|
|-7-7-7--8--8--8-7--7-7-7--8--8--8-10--7-7-7--8--8--8-7--7-7-7--8--8--8-10-10-10-10-|
|-----------------------------------------------------------------------------------|

then
|--------------------------------------------------------------------------|
|--------------------------------------------------------------------------|
|-9-9-9-10-10-10-9---9-9-9-10-10-10-12---9-9-9-10-10-10-9---9-9-9-10-10-10-|
|-9-9-9-10-10-10-9---9-9-9-10-10-10-12---9-9-9-10-10-10-9---9-9-9-10-10-10-|
|-7-7-7--8--8--8-7---7-7-7--8--8--8-10---7-7-7--8--8--8-7---7-7-7--8--8--8-|
|--------------------------------------------------------------------------|

cont'd
|----------------------------------|
|----------------------------------|
|----------------------------------|
|-8-8-x-x-x-x-8-8-x-x-x-x--8--8--8-|
|-8-8-x-x-x-x-8-8-x-x-x-x--8--8--8-|
|-8-8-x-x-x-x-8-8-x-x-x-x--8--8--8-|


(play chorus for an outro)
________________________________________________________________________________
11. BILLY SPLEEN

Drop-D Tuning (Both guitars)

INTRO
Guitar 1 (with effects pedals)
|-0h1p0h1p0h1--1--1p0-|
|---------------------|
|---------------------| x4
|---------------------|
|---------------------|
|---------------------|


BRIDGE
Guitar 2
|--------------------|
|--------------------|
|--------------------| X5
|-2-2--2-2--2-2--2-2-|
|-2-2--2-2--2-2--2-2-|
|-2-2--2-2--2-2--2-2-|

Guitar 1 (with effects. Hear for when to come in)
|-----*12*12*12*12*12*12*------0h1h3/15-15-15-15-----*12*12*12*12*12*12*-|
|-----*12*12*12*12*12*12*----------------------------*12*12*12*12*12*12*-|
|-----*12*12*12*12*12*12*----------------------------*12*12*12*12*12*12*-|
|------------------------------------------------------------------------|
|------------------------------------------------------------------------|
|------------------------------------------------------------------------|
* are harmonics


VERSE
Guitar 1
|-----------------------|
|-----------------------|
|-----------------------| X4
|-2-----0--2---5------0-|
|-2-----0--2---5------0-|
|-2-----0--2---5------0-|


CHORUS
Guitar 1&2
|----------------------------------------------------------------------|
|----------------------------------------------------------------------|
|-4-4-4-4-4-4-4-4------------------------------------------------------| X2
|-4-4-4-4-4-4-4-4--5-5-5-5-5-5-5-5--0-0-0-0-0-0-0-0--2-2-2-2--5-5--7-7-|
|-2-2-2-2-2-2-2-2--5-5-5-5-5-5-5-5--0-0-0-0-0-0-0-0--2-2-2-2--5-5--7-7-|
|------------------5-5-5-5-5-5-5-5--0-0-0-0-0-0-0-0--2-2-2-2--5-5--7-7-|


(play verse again)

(play chorus again)

(play bridge again, but without guitar 2)


INTERLUDE
Guitar 2
|-------------------------------|
|-------------------------------|
|-------------------------------| X3
|-2-2-2---2-2-2---2-2-2---2-2-2-|
|-2-2-2---2-2-2---2-2-2---2-2-2-|
|-2-2-2---2-2-2---2-2-2---2-2-2-|
pm. . .   . . .   . . .   . . .

Guitar 1
|----------------------------------|
|---------5p3h5p3----------5p3h5p3-|
|-4h5p4h5----------4h5p4h5---------| X3
|----------------------------------|
|----------------------------------|
|----------------------------------|

then
Guitar 1&2
|---------------------------|
|---------------------------|
|-7-7-7-7-7-7-7-7-----------|
|-7-7-7-7-7-7-7-7--5-5--4-4-|
|-5-5-5-5-5-5-5-5--5-5--4-4-|
|------------------5-5--4-4-|
pm. . . . . . . .

(play interlude again)

(play verse again)

(play chorus again)
________________________________________________________________________________
12. HOOCH

Drop-D Tuning (Both Guitars)

INTRO
Guitar 1
|----------------------------------------------------------------------|
|----------------------------------------------------------------------|
|----------------------------------------------------------------------| X2
|----------------------------------------------------------------------|
|----------------------------------------------------------------------|
|-2-2-2p0--2-2-2p0--2-2-2p0--2-2-2p0--5-5-5-5-5-5-5-5--0-0-0-0-0-0-0-0-|

Guitar 2 (waits till guitar 1 plays above riff once)
|---
|---
|---
|-2- lets chord ring, then
|-2- pick scrapes
|-2-


BRIDGE
Guitar 1&2
|----------------------------------------------------------------------|
|----------------------------------------------------------------------|
|----------------------------------------------------------------------| X2
|-2-2-2p0--2-2-2p0--2-2-2p0--2-2-2p0--5-5-5-5-5-5-5-5--0-0-0-0-0-0-0-0-|
|-2-2-2p0--2-2-2p0--2-2-2p0--2-2-2p0--5-5-5-5-5-5-5-5--0-0-0-0-0-0-0-0-|
|-2-2-2p0--2-2-2p0--2-2-2p0--2-2-2p0--5-5-5-5-5-5-5-5--0-0-0-0-0-0-0-0-|


VERSE
Guitar 1
|--------------------------------------------------------------|
|--------------------------------------------------------------|
|--------------------------------------------------------------| X2
|-2-2-2--2-2-2--2-2-2--2-2-2--5-5-5-5-5-5-5-5--0-0-0-0-0-0-0-0-|
|-2-2-2--2-2-2--2-2-2--2-2-2--5-5-5-5-5-5-5-5--0-0-0-0-0-0-0-0-|
|-2-2-2--2-2-2--2-2-2--2-2-2--5-5-5-5-5-5-5-5--0-0-0-0-0-0-0-0-|
pm . . . . . . . . . . . . . . . . . . . . . . . .


THEN
Guitar 1
|--------------------------------------------------------|
|--------------------------------------------------------|
|--------------------------------------------------------| X1
|-2-2-2--2-2-2--2-2-2--2-2-2--5-5-5--5-5-5--0-0-0--0-0-0-|
|-2-2-2--2-2-2--2-2-2--2-2-2--5-5-5--5-5-5--0-0-0--0-0-0-|
|-2-2-2--2-2-2--2-2-2--2-2-2--5-5-5--5-5-5--0-0-0--0-0-0-|
pm . . . . . . . . . . . . . . . .

|--------------------------------------------------------------|
|--------------------------------------------------------------|
|--------------------------------------------------------------| X1
|-2-2-2--2-2-2--2-2-2--2-2-2--5-5-5-5-5-5-5-5--0-0-0-0-0-0-0-0-|
|-2-2-2--2-2-2--2-2-2--2-2-2--5-5-5-5-5-5-5-5--0-0-0-0-0-0-0-0-|
|-2-2-2--2-2-2--2-2-2--2-2-2--5-5-5-5-5-5-5-5--0-0-0-0-0-0-0-0-|
pm . . . . . . . . . . . . . . . . . . . . . . . .


CHORUS
Guitar 1
|----------------------------------------------------------|
|----------------------------------------------------------|
|--------12----------12------------------------------------| X2
|-2-2--x-x----2-2--x-x----5-5-5-5-5-5-5-5--0-0-0-0-0-0-0-0-|
|-2-2--x-10---2-2--x-10---5-5-5-5-5-5-5-5--0-0-0-0-0-0-0-0-|
|-2-2--x------2-2--x------5-5-5-5-5-5-5-5--0-0-0-0-0-0-0-0-|

Guitar 2
|-------------------------------------------------------------|
|-------------------------------------------------------------|
|-------------------------------------------7-7-7-7-7-7-7-7---| X2
|-2-2-------0-2-2-------0-5-5-5-5-5-5-5-5--7-7-7-7-7-7-7-7----|
|-2-2-------0-2-2-------0-5-5-5-5-5-5-5-5--0-0-0-0-0-0-0-0----|
|-2-2-------0-2-2-------0-5-5-5-5-5-5-5-5--0-0-0-0-0-0-0-0----|


(play verse again)

(play chorus again twice)


PRE SOLO
Guitar 1&2
|-------------------------------------------------------------------|
|-------------------------------------------------------------------|
|-------------------------------------------------------------------|
|-2-2-2p0-2-2-2p0-2-2-2p0-2-2-2p0--5-5-5-5-5-5-5-5--0-0-0-0-0-0-0-0-|X2
|-2-2-2p0-2-2-2p0-2-2-2p0-2-2-2p0--5-5-5-5-5-5-5-5--0-0-0-0-0-0-0-0-|
|-2-2-2p0-2-2-2p0-2-2-2p0-2-2-2p0--5-5-5-5-5-5-5-5--0-0-0-0-0-0-0-0-|

|-------------------------------------------------------------|
|-------------------------------------------------------------|
|-------------------------------------------------------------|
|-2-2-2p0-2-2-2p0-2-2-2p0-2-2-2p0--5-5-5-5-5-5-5-5--7---------| X2
|-2-2-2p0-2-2-2p0-2-2-2p0-2-2-2p0--5-5-5-5-5-5-5-5--5---------|
|-2-2-2p0-2-2-2p0-2-2-2p0-2-2-2p0--5-5-5-5-5-5-5-5------------|


SOLO
Guitar 1
|-17b(18)r--17-15h17p15---------------12b-12b-------------------------------|
|-----------------------15~--12h13p12---------15p13-12~-10~---10-12-10p8-7~-|
|---------------------------------------------------------------------------|
|---------------------------------------------------------------------------|
|---------------------------------------------------------------------------|
|---------------------------------------------------------------------------|

cont'd
|-------------------------------------------------------------|
|------------------------10h12p10h12-10p8p7h8-----------------|
|-12p9-12--12p9-12--12p9------------------------12p9-9p7-0-2~-|
|-------------------------------------------------------------|
|-------------------------------------------------------------|
|-------------------------------------------------------------|

cont'd
|----------------------------------14p12p10-14p12p10-14p12p10--15-17b(18)r-17-|
|-----------2-3-5-7-8-10-12p10------------------------------------------------|
|-------2-4-------------------12----------------------------------------------|
|0-2-4-5----------------------------------------------------------------------|
|-----------------------------------------------------------------------------|
|-----------------------------------------------------------------------------|

cont'd
|14-15p14-17p14-15p14-17p14-15p14-17p14-15p14-17p14--15-14-12-10~-|
|-----------------------------------------------------------------|
|-----------------------------------------------------------------|
|-----------------------------------------------------------------|
|-----------------------------------------------------------------|
|-----------------------------------------------------------------|

Guitar 2
|------------------------------------------------------------------|
|------------------------------------------------------------------|
|-----------------------4-4-4-4-4-4--4-4-4-4-----------------------| X4
|-0-0-0-0-0-0--0-0-0-0--4-4-4-4-4-4--4-4-4-4--5-5-5-4-4-0--0-0-0-0-|
|-0-0-0-0-0-0--0-0-0-0--2-2-2-2-2-2--2-2-2-2--5-5-5-4-4-0--0-0-0-0-|
|-0-0-0-0-0-0--0-0-0-0------------------------5-5-5-4-4-0--0-0-0-0-|


OUTRO
Guitar 1 (dont have yet)

Guitar 2
|-------------------------------------------------------|
|-------------------------------------------------------|
|-------------------------------------------------------| X4
|-5---5---5-5-4-0---0----0-4-9---9---9-9-7-0---0----0-4-|
|-5---5---5-5-4-0---0----0-4-9---9---9-9-7-0---0----0-4-|
|-5---5---5-5-4-0---0----0-4-9---9---9-9-7-0---0----0-4-|

cont'd
END WITH:
|-----------------|
|-----------------|
|-----------------|
|-5---5---5-5-4-0-|
|-5---5---5-5-4-0-|
|-5---5---5-5-4-0-|
________________________________________________________________________________

And there you have it! The Whole Does This Look Infected Album! All tabbed by
me, by It is very accurate. In fact, the only part that is missing is guitar 1
during the outro of but that is it! Nothing else is missing! So there! Also rate
my tab (good lol), cause I put a lot of work into this. Any comments, questions,
concerns, e-mail me at (But please people, no spam or stupid letters. And donít
add me to your MSN just to request a song. Thatís what e-mail is for!). And once
again,

BUY THEIR ALBUM! DOES THIS LOOK INFECTED?!
Related for Does This Look Infected tab