Guitaretab - guitar tabs
Song name
# A B C D E F G H I J K L M N O P Q R S T U V W X Y Z

Sum 41 - Ride The Chariot To The Devil tab

Guitarists:Deryck Whibley,Dave Baksh
Band:Sum 41
Song:Ride The Chariot To The Devil
Album:Half Hour Of Power
Tuning:Standard
(E-A-D-G-B-e)
/=slide

Intro 
Guitar 1
e|---------------------------------------------------------------------------
B|---------------------------------------------------------------------------
G|---------------------------------------------------------------------------
D|---11----6/7------7/9-9-9-9------------------------------------------------
A|----9----4/5---7--5/7-7-7-7------------------------------------------------
E|---------------5-----------------------------------------------------------

Guitar 2
e|------------------------------------------------------------------|
B|------------------------------------------------------------------|
G|------------------------------------------------------------------|
D|-11-11-11-11----7-7-7-7--------------9-9-9-9----------------------|
A|--9--9--9--9----5-5-5-5----7-7-7-7---7-7-7-7----------------------|
E|---------------------------5-5-5-5--------------------------------|
[ Tab from: http://www.guitaretab.com/s/sum-41/33505.html ]
Guitar 1
e|----5-5-5-5-5-5---9-5-5-9-7-5--------------------------------------
B|-------------------------------------------------------------------
G|-------------------------------------------------------------------
D|-------------------------------------------------------------------
A|-------------------------------------------------------------------
E|-------------------------------------------------------------------

 Guitar 2
e|----9-9-9-9-9-9---12-9-9-12-10-9--------------------------------------|
B|----------------------------------------------------------------------|
G|----------------------------------------------------------------------|
D|----------------------------------------------------------------------|
A|----------------------------------------------------------------------|
E|----------------------------------------------------------------------|

e|----------------------------------------------------------------------|
B|----------------------------------------------------------------------|
G|----------------------------------------------------------------------|
D|---11----6/7------7/9-9-9-9-------------------------------------------|
A|----9----4/5---7--5/7-7-7-7-------------------------------------------|
E|---------------5------------------------------------------------------|
Related for Ride The Chariot To The Devil tab
Advertisement will be closed in 10 seconds