Song name
# A B C D E F G H I J K L M N O P Q R S T U V W X Y Z

Sum 41 - Im Not The One tab

-----------------------------------------------------------------------------
                             I'm Not the One - Sum 41
-----------------------------------------------------------------------------

Tabbed by: Wuai Bel Ree
Tuning: E Standard

e|--------------------------------------------------------------------------|
B|--------------------------------------------------------------------------|
G|--------------------------------------------------------------------------|
D|-6--6--66-----------------------------------------------------------------|
A|-4--4--44---7--7--77---9--9--99---4--4--44--------------------------------|
E|------------5--5--55---7--7--77---2--2--22--------------------------------|

e|---4-----------4-----------4--4-----4-------------------------------------|
B|----5--5--5-5---5--5--5-5---5--5--5--5--5-5\------------------------------|
G|-6---6-------6---6-------6---6--6--6--6-----------------------------------|
D|--------------------------------------------------------------------------|
A|--------------------------------------------------------------------------|
E|--------------------------------------------------------------------------|

e|-4--4---------4-9---------------------------------------------------------|
B|--5--5--5-5--5----5-<==(might be 4 on "e" string)-------------------------|
G|---6--6-----6-------------------------------------------------------------|
D|--------------------------------------------------------------------------|
A|--------------------------------------------------------------------------|
E|--------------------------------------------------------------------------|

This rapid palm muting part I can't really make out. 
 
e|--------------------------------------------------------------------------|
B|--------------------------------------------------------------------------|
G|--------------------------------------------------------------------------|
D|--------------------------------------------------6-6-7-6-----------------|
A|-2--2--2--2--4--5--2--2--2--2---2-----------------4-4-5-4-----------------|
E|-0.-2.-0.-2.-2.-3.-2.-0.-0.-0.--0.----------------4-4-5-4-----------------|

e|--------------------------------------------------------------------------|
B|--------------------------------------------------------------------------|
G|--------------------------------------------------------------------------|
D|--------------------------------------------------------------------------|
A|-2--2--2--2--4--5--2--2--2--2---2-----------------------------------------|
E|-0.-2.-0.-2.-2.-3.-2.-0.-0.-0.--0.----------------------------------------|

e|-----------------------------------------------|--------------------------|
B|-------------strum-----------------------------|--------------------------|
G|-----------------------------------------------|--------------------------|
D|-6---------------------------------------------|-6-6--6--6--6--6--6--6----|
A|-4--------7-----------9---------------4----x2--|-4-4--4--4--4--4--4--4----|
E|----------5-----------7---------------2--------|-4-4--4--4--4--4--4--4----|

e|--------------------------------------------------------------------------|
B|--------------------------------------------------------------------------|
G|--------------------------------------------------------------------------|
D|--------------------------------------------------6-6-7-6-----------------|
A|-2--2--2--2--4--5--2--2--2--2---2-----------------4-4-5-4-----------------|
E|-0.-2.-0.-2.-2.-3.-2.-0.-0.-0.--0.----------------4-4-5-4-----------------|

e|--------------------------------------------------------------------------|
B|--------------------------------------------------------------------------|
G|--------------------------------------------------------------------------|
D|--------------------------------------------------------------------------|
A|-2--2--2--2--4--5--2--2--2--2---2-----------------------------------------|
E|-0.-2.-0.-2.-2.-3.-2.-0.-0.-0.--0.----------------------------------------|

e|--------------------------------------------------------------------------|
B|-------------strum--------------------------------------------------------|
G|--------------------------------------------------------------------------|
D|-6------------------------------------------------------------------------|
A|-4--------7-----------9---------------4----x2-----------------------------|
E|----------5-----------7---------------2-----------------------------------|

e|--------------------------------------------------------------------------|
B|--------------------------------------------------------------------------|
G|---------------------------------strum last 2 chords----------------------|
A|-2-2--2---6--6---2-2--2---6--6--------------------------------------------|
D|-2-2--2---4--4---2-2--2---4--4-----7-----------9----------x2--------------|
E|-0-0--0----------0-0--0------------5-----------7--------------------------|

e|--------------------------------------------------------------------------|
B|--------------------------------------------------------------------------|
G|----------9--9------------9--9---strum last 2 chords----------------------|
D|-2-2--2---x--x---2-2--2---x--x--------------------------------------------|
A|-2-2--2---7--7---2-2--2---7--7-----7-----------9---------x2---------------|
E|-0-0--0----------0-0--0------------5-----------7--------------------------|

On this part, I can not make out the last rapid bit at all. I'm guessing.

e|--------------------------------------------------------------------------|
B|--------------------------------------------------------------------------|
G|--------------------------------------------------------------------------|
D|-2--2---2--2---2--2--222---222--------------------------------------------|
A|-2--2---2--2---2--2--222444222------x12-----------------------------------|
E|-0.-0.--0.-0.--0.-0.-000222000--------------------------------------------|

e|--------------------------------------------------------------------------|
B|--------------------------------------------------------------------------|
G|--------------------------------------------------------------------------|
D|-6--6--6--6--6--6--7--7---------------------------------------------------|
A|-4--4--4--4--4--4--5--5---x4----------------------------------------------|
E|-----------------------------------------\\\\\\\\\\\\\\\\\\\\\\\\\\\------|

e|--------------------------------------------------------------------------|
B|--------------------------------------------------------------------------|
G|--------------------------------------------------------------------------|
D|-6------------------------------------------------------------------------|
A|-4-------7-------9-------4------x2----------------------------------------|
E|---------5-------7-------2------------------------------------------------|

e|--------------------------------------------------------------------------|
B|--------------------------------------------------------------------------|
G|---------------------------------6-6--6---9--9----------------------------|
A|-2-2--2---6--6---2-2--2---6--6---x-x--x---x--x------2---------------------|
D|-2-2--2---4--4---2-2--2---4--4---4-4--4---7--7------2--4--4--4------------|
E|-0-0--0----------0-0--0-----------------------------0--2.-2.-2.-----------|



************************************


\   slide down
.   palm mute
\\\ pick slide down
Tap to rate this tab
# A B C D E F G H I J K L M N O P Q R S T U V W X Y Z