Song name
# A B C D E F G H I J K L M N O P Q R S T U V W X Y Z

Sum 41 - Were The Same tab

We're the same solo tab
The only bit I'm not sure about is the palm mute bit :|
Key:
b  - Bend
r  - Return
<> - Vibrato
h  - Hammer on
p  - Pull off
{} - Palm mute

e|-----------------------------|-8-5-----------------------|-----------------------|
B|-----5-----5-----5-----5-----|-----8-5-------------------|-------------5~--------|
G|-7b9---7b9---7b9---7b9---7b9-|---------7-5---5-7b9r7-<7>-|-7-5---5h7p5-7--5---5--|
D|-----------------------------|-------------7-------------|-----7------------7----|
A|-----------------------------|---------------------------|-----------------------|
E|-----------------------------|---------------------------|-----------------------|

e|-8-5-----------------|-5-------------------|--{---------------}----------|
B|-----8-5-------------|---8-6-5h6p6---------|--{---------------}----------|
G|---------7-5---5-<7>-|-------------7-5---5-|--{---------------}-5---5-7--|
D|-------------7-------|-----------------7---|--{---------5-7-5-}---7------|
A|---------------------|---------------------|--{-----5-7-------}----------|
E|---------------------|---------------------|--{-5-8-----------}----------|

e|------------------------------------------------------|
B|-7/8-8/10-10/12-12/13-10/12-12/13-13/15-15/17-15/<17>-|
G|------------------------------------------------------|
D|------------------------------------------------------|
A|------------------------------------------------------|
E|------------------------------------------------------|
Tap to rate this tab
# A B C D E F G H I J K L M N O P Q R S T U V W X Y Z