Song name
# A B C D E F G H I J K L M N O P Q R S T U V W X Y Z

Sum 41 - Pieces chords

Highlighted       Show chord diagrams
11.) Pieces

Tuning: Drop D

Key: F

Chords used: Drop D only
Dm -  000231
Bb -  8-8-10-x-x-x
F -   333xxx
C/E - 232xxx
Gm -  555xxx
C -   10-10-10-x-x-x
A -   777xxx


Chords used: If you want Standard EADGBE tuning
Dm -  xx0231
Bb -  x13331 or x13311
F -   133211
C/E - 032xxx
Gm -  355333
C -   x32010
A -   x02220


Intro:

Deryck: Dm--Bb--F--C/E


Verse 1:
Dm              Bb
  I tried to be perfect
                F
But nothing was worth it
          C/E
I don't believe
            Dm
it makes me real
                  Bb
I thought it'd be easy
             F
But no one believes me
        C/E
I meant all the
things I-


Chorus 1:
 Bb
-said If you believe
           F
it's in my soul
        C/E
I'd say all the
             Bb
words that I know
Just to see if
         F
it would show
         C/E
That I'm trying
           Bb(hold)
to let you know
That I'm better
off on my own


Dave: Chorus
       Bb             F            C/E
e|--------5----|--------5----|--------3----|
B|---6-------6-|---6-------6-|---5-------5-|
G|-7----7------|-5----5------|-5----5------|
D|-------------|-------------|-------------| x2
A|-------------|-------------|-------------|
D|-------------|-------------|-------------|
       x4             x2            x2

Interlude:

Deryck: Dm--Bb--F--C/E

Dave: until Verse 3
     Dm         Bb        F        C/E
e|-5-5-5-5-|-6-6-6-6-|-5-5-5-5-|-3-3-3-3-|
B|-6-6-6-6-|-6-6-6-6-|-6-6-6-6-|-5-5-5-5-|
G|-7-7-7-7-|-5-5-5-5-|-5-5-5-5-|-5-5-5-5-|
D|---------|---------|---------|---------|
A|---------|---------|---------|---------|
D|---------|---------|---------|---------|
     x2         x2        x2       x2


Cone:
         Dm                 Bb                F                  C/E
G|-----------------|-----------------|-----------------|-------------2h5-2---|
D|-----------------|-----------------|-----------------|-----------5-------5-|
A|-----------------|-1-1-1-1-1-1-1-1-|-----------------|---------3-----------|
D|-0-0-0-0-0-0-0-0-|-----------------|-3-3-3-3-3-3-3-3-|-2-2-2-2-------------|


Verse 2:
Dm                 Bb
  This place is so empty
My thoughts are
   F
so tempting
             C/E
I don't know how
          Dm
it got so bad
Sometimes it's
   Bb
so crazy
That nothing
    F
can save me
             Gm
But it's the only
C
thing that I-


Chorus 2:
 Bb
-have If you believe
           F
it's in my soul
        C/E
I'd say all the
             Bb
words that I know
Just to see if
         F
it would show
         C/E
That I'm trying
           Bb(hold)
to let you know
That I'm better
off on my own


Bridge:

Deryck: F--Bb-C-F--Bb--Dm--C--Bb--F--Dm--C--Bb--F--A--

Dave:
           F                 Bb          C
e|-5-5-5-6-5-5-5-5-6-|-5-5-5-5-6-8-8-8-|-8-|
B|-6-6-6-6-6-6-6-6-6-|-6-6-6-6-6-6-6-6-|-6-|
G|-------------------|-----------------|---|
D|-------------------|-----------------|---|
A|-------------------|-----------------|---|
D|-------------------|-----------------|---|

           F                  Bb
e|-5-5-5-6-5-5-5-5-6-|-5-5-5-5-6-8-8-8-8-|
B|-6-6-6-6-6-6-6-6-6-|-6-6-6-6-6-6-6-6-6-|
G|-------------------|-------------------|
D|-------------------|-------------------|
A|-------------------|-------------------|
D|-------------------|-------------------|

       Dm          C           Bb        F
e|-------8----|-----10---|-----5-----|-----5---|
B|-10---------|-8--------|-6-----6---|---6---6-|
G|----10---10-|---9----9-|---7-----7-|-5-------|
D|------------|----------|-----------|---------| x2
A|------------|----------|-----------|---------|
D|------------|----------|-----------|---------|

                A
E|-3-3-3-5-3-3-3-5-3-3-3-3-3-3-3-3-|
B|-5-5-5-5-5-5-5-5-5-5-5-5-5-5-5-5-|
G|---------------------------------|
D|---------------------------------|
A|---------------------------------|
D|---------------------------------|


Verse 3:
Dm              Bb
  I tried to be perfect
               F
It just wasn't worth it
              C/E
Nothing could ever 
      Dm
be so wrong
It's hard to 
  Bb
believe me
              F
It never gets easy
          C/E
I guess I knew 
that all a-


Chorus 3:
 Bb
-long If you believe
           F
it's in my soul
        C/E
I'd say all the
             Bb
words that I know
Just to see if
         F
it would show
         C/E
That I'm trying
           Bb(hold)
to let you know
That I'm better
          F(hold)
off on my own
Tap to rate this tab
# A B C D E F G H I J K L M N O P Q R S T U V W X Y Z